Oops, an error
Loading. Please wait.

I Dont Care Tab

version 1
version 1
288,274 views 165 this week
32 commentsread comments
1 2 3 4 5
x 98
add to favorites
launch autoscroll
font size
0
reset
how to read this tab
guitar tuner
Autoscroll
slow
fast
+/-
esc
set tempo
stop
Help us to improve Ultimate-Guitar.com Take our survey!
×
Author
Difficulty
intermediate
-------------------------------------------------------------------------------
                             I DON'T CARE - Fall Out Boy
-------------------------------------------------------------------------------
Tabbed by: Shawn
Email: motioncityost@yahoo.com

Tuning: Standard


[Intro/Verses]
e|----------------------------------------------|
B|----------------------------------------------|
G|----------------------------------------------|
D|---4--4---4-4-4-4-4------4--4---4-4-4-4-4-----|
A|----------0-2-0-2-0-------------0-2-0-2-0-----|
E|-2------------------2--2------------------2---|

Small riff in verse
e|----------------------------|
B|----------------------------|
G|----------------------------|
D|----------------------------|
A|-555555444444222222---------|
E|-------------------222222---|


[Chorus]
e|--------------------------------------------------------------------|
B|--------------------------------------------------------------------|
G|-----------------7-7-7-7-4-4-4-4-7-7-7-7-4-4-4-4--------------------|
D|-4-4-4-4-7-7-7-7-7-7-7-7-4-4-4-4-7-7-7-7-4-4-4-4---4--4--4-4-4-4-4--|
A|-4-4-4-4-7-7-7-7-5-5-5-5-2-2-2-2-5-5-5-5-2-2-2-2---------0-2-0-2-0--|
E|-2-2-2-2-5-5-5-5---------------------------------2------------------|x2

End 2nd and 3rd Chorus' with..
e|-----|
B|-----|
G|-----|
D|-4~--|
A|-4~--|
E|-2~--|


===============================================================================

| /  slide up
| \  slide down
| h  hammer-on
| p  pull-off
| ~  vibrato
| +  harmonic
| x  Mute note

===============================================================================
Suggest correction
comments
print report bad tab
32 comments total. Showing first comments. show 1 bad comment
+7 reply
Matt Doreen 190 Sep 09, 2008 05:46 PM

It's not bad at all. Everything you have sounds right, but I think there's a lead guitar in the back of the last chorus (I know, I was shocked when I realized, too.)

+3 reply
blur819 1,341 Sep 12, 2008 02:27 PM

good tab... thx man

guest
You may want to rate the tab now too:
select rating
Wanna post a correction for this tab? Suggest correction