Oops, an error
Loading. Please wait.
We have an official I Dont Care tab made by UG professional guitarists. Check out the tab »
×
4,800 views 12 this week
1 commentread comment
1 2 3 4 5
1 last vote to show rating
add to favorites
×
Save as Personal and add changes to this tab that will be seen only by you. Learn more ›
×
You can save this tab as Personal to edit and correct it or add notes. All changes will be seen only by you. Learn more »
launch autoscroll
font size
0
reset
how to read this tab
guitar tuner
backing track
0:00
0:00
edit
Autoscroll
slow
fast
+/-
esc
set tempo
stop
Author
Difficulty
This is exactly what Joe Throman plays.

. - staccato (quick stop)
x - dead note (finger not pressed down)
b - bend (lightly)
h - hammer on

FOR THE CHORUS’S YOU CAN PLAY EACH CHORD 8 TIMES IF YOU LIKE.

email me if you need any help: adrian.bnd@hotmail.com

Intro 0:01
e|--------------------------------|
B|--------------------------------|
G|--------------------------------|
D|-----4.--4.--4.-----------------| X4
A|-----------------00-22-00-22-00-|
E|-2-----x---x--------------------|
     

Verse 0:16
e|--------------------------------|    e|--------------------------|
B|--------------------------------|    B|--------------------------|
G|--------------------------------|    G|--------------------------|
D|-----4.--4.--4.-----------------| X2 D|--------------------------|
A|-----------------00-22-00-22-00-|    A|-555555444444222222-------|
E|-2-----x---x--------------------|    E|-------------------555-444|

e|--------------------------------|    e|--------------------------|
B|--------------------------------|    B|--------------------------|
G|--------------------------------|    G|--------------------------|
D|-----4.--4.--4.-----------------| X3 D|--------------------------|
A|-----------------00-22-00-22-00-|    A|-555555444444222222-------|
E|-2-----x---x--------------------|    E|-------------------555-444|

e|--------------------------------|
B|--------------------------------|
G|--------------------------------|
D|-----4.--4.--4.-----------------| 
A|-----------------00-22-00-22-00-|
E|-2-----x---x--------------------|


Chorus 0:44
e|------------------------------------------------------|
B|------------------------------------------------------|
G|-------------------7-7-7-7--4-4-4-4--7-7-7-7--4-4-4-4-|  
D|-4-4-4-4--7-7-7-7--7-7-7-7--4-4-4-4--7-7-7-7--4-4-4-4-| 
A|-4-4-4-4--7-7-7-7--5-5-5-5--2-2-2-2--5-5-5-5--2-2-2-2-|
E|-2-2-2-2--5-5-5-5-------------------------------------|

e|--------------------------------|
B|--------------------------------|
G|--------------------------------|
D|-----4.--4.--4.-----------------| 
A|-----------------00-22-00-22-00-|
E|-2-----x---x--------------------|

e|------------------------------------------------------|
B|------------------------------------------------------|
G|-------------------7-7-7-7--4-4-4-4--7-7-7-7--4-4-4-4-| 
D|-4-4-4-4--7-7-7-7--7-7-7-7--4-4-4-4--7-7-7-7--4-4-4-4-| 
A|-4-4-4-4--7-7-7-7--5-5-5-5--2-2-2-2--5-5-5-5--2-2-2-2-|
E|-2-2-2-2--5-5-5-5-------------------------------------|

e|--------------------------------|
B|--------------------------------|
G|--------------------------------|
D|-----4.--4.--4.-----------------| 
A|-----------------00-22-00-22-00-|
E|-2-----x---x--------------------|

e|--------------------------------|
B|--------------------------------|
G|--------------------------------|
D|-----4.--4.--4.-----------------| 
A|-----------------00-22-00-22-00-|
E|-2-----x---x--------------------|


Verse 1:10
e|--------------------------------|    e|--------------------------|
B|--------------------------------|    B|--------------------------|
G|--------------------------------|    G|--------------------------|
D|-----4.--4.--4.-----------------| X2 D|--------------------------|
A|-----------------00-22-00-22-00-|    A|-555555444444222222-------|
E|-2-----x---x--------------------|    E|-------------------555-444|

e|--------------------------------|    e|--------------------------|
B|--------------------------------|    B|--------------------------|
G|--------------------------------|    G|--------------------------|
D|-----4.--4.--4.-----------------| X3 D|--------------------------|
A|-----------------00-22-00-22-00-|    A|-555555444444222222-------|
E|-2-----x---x--------------------|    E|-------------------555-444|

e|--------------------------------|
B|--------------------------------|
G|--------------------------------| 
D|-----4.--4.--4.-----------------| 
A|-----------------00-22-00-22-00-|
E|-2-----x---x--------------------|


Chorus 1:45
e|------------------------------------------------------|
B|------------------------------------------------------|
G|-------------------7-7-7-7--4-4-4-4--7-7-7-7--4-4-4-4-| 
D|-4-4-4-4--7-7-7-7--7-7-7-7--4-4-4-4--7-7-7-7--4-4-4-4-| 
A|-4-4-4-4--7-7-7-7--5-5-5-5--2-2-2-2--5-5-5-5--2-2-2-2-|
E|-2-2-2-2--5-5-5-5-------------------------------------|

e|--------------------------------|
B|--------------------------------|
G|--------------------------------| 
D|-----4.--4.--4.-----------------| 
A|-----------------00-22-00-22-00-|
E|-2-----x---x--------------------|

e|------------------------------------------------------|
B|------------------------------------------------------|
G|-------------------7-7-7-7--4-4-4-4--7-7-7-7--4-4-4-4-|  
D|-4-4-4-4--7-7-7-7--7-7-7-7--4-4-4-4--7-7-7-7--4-4-4-4-| 
A|-4-4-4-4--7-7-7-7--5-5-5-5--2-2-2-2--5-5-5-5--2-2-2-2-|
E|-2-2-2-2--5-5-5-5-------------------------------------|

e|--------------------------------|    e|---|
B|--------------------------------|    B|---|
G|--------------------------------|    G|---|
D|-----4.--4.--4.-----------------| X2 D|-4~|
A|-----------------00-22-00-22-00-|    A|-4~|
E|-2-----x---x--------------------|    E|-2~|


Bridge into Chorus 2:18
e|--------------------------------|
B|--------------------------------|
G|--------------------------------| X12
D|-----4.--4.--4.-----------------| 
A|-----------------00-22-00-22-00-|
E|-2-----x---x--------------------|
PM--------------------------------|
  


Chorus 3:00
e|------------------------------------------------------|
B|------------------------------------------------------|
G|-------------------7-7-7-7--4-4-4-4--7-7-7-7--4-4-4-4-|
D|-4-4-4-4--7-7-7-7--7-7-7-7--4-4-4-4--7-7-7-7--4-4-4-4-|
A|-4-4-4-4--7-7-7-7--5-5-5-5--2-2-2-2--5-5-5-5--2-2-2-2-|
E|-2-2-2-2--5-5-5-5-------------------------------------|

e|--------------------------------|
B|--------------------------------|
G|--------------------------------| 
D|-----4.--4.--4.-----------------| 
A|-----------------00-22-00-22-00-|
E|-2-----x---x--------------------|


e|------------------------------------------------------|
B|------------------------------------------------------|
G|-------------------7-7-7-7--4-4-4-4--7-7-7-7--4-4-4-4-|
D|-4-4-4-4--7-7-7-7--7-7-7-7--4-4-4-4--7-7-7-7--4-4-4-4-|
A|-4-4-4-4--7-7-7-7--5-5-5-5--2-2-2-2--5-5-5-5--2-2-2-2-|
E|-2-2-2-2--5-5-5-5-------------------------------------|


e|--------------------------------|
B|--------------------------------|
G|--------------------------------| X2
D|-----4.--4.--4.-----------------| 
A|-----------------00-22-00-22-00-|
E|-2-----x---x--------------------|


e|----|
B|----|
G|----|
D|-4~-|
A|-4~-|
E|-2~-|


Solo 3:13
e|-----------------------------------|
B|----------------12----12-14-14-14~-|
G|-11-13-14-13-14----14--------------|
D|-----------------------------------|
A|-----------------------------------|
E|-----------------------------------|

e|-12h14-14.-14.-12h14-14.-14.-12h14-14.-----------------|
B|------------------------------------------10-10h12-10~-|
G|-------------------------------------------------------|
D|-------------------------------------------------------|
A|-------------------------------------------------------|
E|-------------------------------------------------------|

e|-12h14-14.-14.-12h14-14.-14.-12h14-14.---------------------------------------------------|
B|----------------------------------------10-10h12-10~--10h12-10~-10h12-12/14~-12\10-------|
G|-----------------------------------------------------------------------------------11-9--|
D|-----------------------------------------------------------------------------------------|
A|-----------------------------------------------------------------------------------------|
E|-----------------------------------------------------------------------------------------|

e|-14-16-(17b x22)---| 
B|-------------------|
G|-------------------|
D|----------------4~-|
A|----------------4~-|
E|----------------2~-|



            
            
Suggest correction
Creating personal tab
Creating personal tab
You can edit any tab online and save it as your Personal.

You can edit, replace or remove any tab part or add personal notes – all changes will be seen only by you.

Personal tabs can be accessed anytime from any device, even offline.
Learn more »
Give kudos to tab author, rate the tab!
1 2 3 4 5
comments
print report bad tab
1 comment total.
0 reply
pnkr0cker 2,033 May 04, 2011 05:44 PM

The Verse guitar isn't right, but the solo is the best.

Verse:

e|---------------------------------|
B|---------------------------------|
G|---------------------------------|
D|----4--4--4---4---4---4---4------|
A|------------0---2---0---2---0----|
E|--2------------------------------|
----------------- Let ring

guest
You may want to rate the tab now too:
select rating
Wanna post a correction for this tab? Suggest correction