Oops, an error
Loading. Please wait.

I Slept With Someone In Fall Out Boy And All I Got Was This Stupid Song Written About Me tab

version 5
version 5

Interactive

19,605 views 9 this week
3 commentsread comments
1 2 3 4 5
x 7
add to favorites
×
Save as Personal and add changes to this tab that will be seen only by you. Learn more ›
×
You can save this tab as Personal to edit and correct it or add notes. All changes will be seen only by you. Learn more »
launch autoscroll
font size
0
reset
how to read this tab
guitar tuner
edit
Autoscroll
slow
fast
+/-
esc
set tempo
stop
This song is in DROP D TUNING.
e|---|     e|---|
B|---|     B|-4-|
G|---| AND G|-4-|
D|-9-|     D|-2-|
A|-9-|     A|---|
D|-9-|     D|---|

e|----|     e|---|
B|----|     B|-7-|
G|----| AND G|-7-|
D|-12-|     D|-5-|
A|-12-|     A|---|
D|-12-|     D|---|

e|---------|     e|---------|
B|---------|     B|---------|
G|---------| AND G|---------|
D|---------|     D|-2h4p2p0-|
A|-7h9p7p5-|     A|---------|
D|---------|     D|---------|

[Pre-Intro]
G1
e|---------|
B|---------|
G|---------|
D|-2>/5>/99|
A|-2>/5>/99|
D|-2>/5>/99| For most of the song, the > is more like letting the
          ^  note hang there for a second. The exception are the
                     parts which look like this.

[Intro]
G2
e|---------------------------------------------|x3
B|---------------------------------------------|
G|-4-4-4-2-2-----------------------------------|
D|-4-4-4-4-4-0h2h4p2p0-5-5-5-5-5-5-2-2-2-2-2-2-|
A|-2-2-2-0-0-----------5-5-5-5-5-5-2-2-2-2-2-2-|
D|---------------------5-5-5-5-5-5-2-2-2-2-2-2-|
   ^ ^ ^ ^ ^           . . ^ . ^ ^ . . ^ . ^ ^

G2
e|---------------------------------|x1
B|---------------------------------|
G|-4-4-4-2-2-----------------------|
D|-4-4-4-4-4-0h2h4p2p0-5-5-5-5-5-2-|
A|-2-2-2-0-0-----------5-5-5-5-5-2-|
D|---------------------5-5-5-5-5-2-|
   ^ ^ ^ ^ ^           . . ^ . ^ ^

[Fill 1]
[G1]
e|---------------------------------------------------------|x2
B|---------------------------------------------------------|
G|---------------------------------------------------------|
D|-9-9--9-0-0--0-5-5--5-0-0--0-7-7--7-9-9--9-5-5--5-0-0--0-|
A|-9-9--9-0-0--0-5-5--5-0-0--0-7-7--7-9-9--9-5-5--5-0-0--0-|
D|-9-9--9-0-0--0-5-5--5-0-0--0-7-7--7-9-9--9-5-5--5-0-0--0-|
        s      s      s      s      s      s      s      s

[G2]
e|-------------------------------------------------------------------|x1
B|-------------------------------------------------------------------|
G|-11>-11-11-11>-11-11--7>-7-7-7>-7-7--9-9-9--11-11-11--7-7-7-7-7-7--|
D|-9 >-9 -9 -9 >-9 -9 --5>-5-5-5>-5-5--7-7-7--9 -9 -9 --5-5-5-5-5-5--|
A|-9 >-9 -9 -9 >-9 -9 --5>-5-5-5>-5-5--7-7-7--9 -9 -9 --5-5-5-5-5-5--|
D|-------------------------------------------------------------------|
                    s               s      s        s       s     s
[End fill 1]
[Verse 1]
[G1]
e|-------------------------------------------------|x4
B|-------------------------------------------------|
G|-4-4-4-4-4-4-2-2-2-2-2-2-------------------------|
D|-4-4-4-4-4-4-4-4-4-4-4-4-5-5-5-5-5-5-2-2-2-2-2-2-|
A|-2-2-2-2-2-2-0-0-0-0-0-0-5-5-5-5-5-5-2-2-2-2-2-2-|
D|-------------------------5-5-5-5-5-5-2-2-2-2-2-2-|
   . . ^ . ^ ^ . . ^ . ^ ^ . . ^ . ^ ^ . . ^ . ^ ^

[G2]
e|-------------------------------------------------|x4
B|-------------------------------------------------|
G|-------------------------------------------------|
D|-9-9-9-9-9-9-0-0-0-0-0-0-5-5-5-5-5-5-2-2-2-2-2-2-|
A|-9-9-9-9-9-9-0-0-0-0-0-0-5-5-5-5-5-5-2-2-2-2-2-2-|
D|-9-9-9-9-9-9-0-0-0-0-0-0-5-5-5-5-5-5-2-2-2-2-2-2-|
   . . ^ . ^ ^ . . ^ . ^ ^ . . ^ . ^ ^ . . ^ . ^ ^

[Pre-Chorus]
[G2]
e|-------|
B|-------|
G|-------|
D|-2>/5>/|
A|-2>/5>/|
D|-2>/5>/| Slide into next part.

[Chorus]
[G1]
[P1]
e|----------------------------------------------------------|
B|----------------------------------------------------------|
G|-7>-7-7>-7-7-7-9>-9-9>-9-9-9-11-11-11-11-14-7>-7-7>-7-7-7-|
D|-5>-5-5>-5-5-5-7>-7-7>-7-7-7-9 -9 -9 -9 -12-5>-5-5>-5-5-5-|
A|-5>-5-5>-5-5-5-7>-7-7>-7-7-7-9 -9 -9 -9 -12-5>-5-5>-5-5-5-|
D|----------------------------------------------------------|

[G1]
[P2]
e|----------------------------------------------------------------|x2
B|----------------------------------------------------------------|
G|-11>-11-11>-11-11-11-9>-9-9>-9-9-9-7-------------7>-------------|
D|-9> -9 -9> -9 -9 -9 -7>-7-7>-7-7-7-5-5-5-5-5-5-5-7>-5-5-5-5-5-5-|
A|-9> -9 -9> -9 -9 -9 -7>-7-7>-7-7-7-5-5-5-5-5-5-5-5>-5-5-5-5-5-5-|
D|-------------------------------------5-5-5-5-5-5----5-5-5-5-5-5-|
                                       + + + + + +    + + + + + +

[G2]
[P1]
e|-------------------------------------------------------|
B|-------------------------------------------------------|
G|-------------------------------------------------------|
D|-9-9>-9-9-9-0>-0-0>-0-0-0-0-2>-2-2-2-4-5>-5-5>-5-5-5-5-|
A|-9-9>-9-9-9-0>-0-0>-0-0-0-0-2>-2-2-2-4-5>-5-5>-5-5-5-5-|
(So douse yourself in cheap perfume...)

[G2]
[P2]
e|---------------------------------------------------------|x2
B|---------------------------------------------------------|
G|---------------------------------------------------------|
D|-9-9>-9-9-9-7>-7-7>-7-7-7-7-5-5-5-5-5-5-5-0>-5-5-5-5-5-5-|
A|-9-9>-9-9-9-7>-7-7>-7-7-7-7-5-5-5-5-5-5-5-0>-5-5-5-5-5-5-|
D|-9-9>-9-9-9-7>-7-7>-7-7-7-7-5-5-5-5-5-5-5-0>-5-5-5-5-5-5-|
                                + + + + + +    + + + + + +
                                                                      ...can't cover it up

[Fill 2](Repeat FILL 1)

[Verse 2](Follow VERSE 1 then add below...)
[G1]                                                       4 4 4 4 4 4
e|-----------------------------------------------------------------------|x4
B|-----------------------------------------------------------------------|
G|-11-11>-11----------9-9>-9----------7-7>-7----------4-4>-4-4-4-4-4-4-4-|
D|-9 -9> -9 -/x-x>-x\-7-7>-7-/x-x>-x\-5-5>-5-/x-x>-x\-2-2>-2-2-2-2-2-2-2-|
A|-9 -9> -9 -/x-x>-x\-7-7>-7-/x-x>-x\-5-5>-5-/x-x>-x\-2-2>-2-2-2-2-2-2-2-|
D|-----------/x-x>-x\--------/x-x>-x\--------/x-x>-x\--------------------|
          s        s       s       s       s       s       s

[G2]                                                       4 4 4 4 4 4
e|--------------------------------------------------------------------|x4
B|--------------------------------------------------------------------|
G|--------------------------------------------------------------------|
D|-9-9>-9-/x-x>-x\-0-0>-0-/x-x>-x\-5-5>-5-/x-x>-x\-2-2>-2-2-2-2-2-2-2-|
A|-9-9>-9-/x-x>-x\-0-0>-0-/x-x>-x\-5-5>-5-/x-x>-x\-2-2>-2-2-2-2-2-2-2-|
D|-9-9>-9-/x-x>-x\-0-0>-0-/x-x>-x\-5-5>-5-/x-x>-x\-2-2>-2-2-2-2-2-2-2-|
        s       s       s       s       s       s       s

[PRE-CHORUS 2](Repeat PRE-CHORUS 1)

[CHORUS 2](Repeat CHORUS 1)

[PRE-CHANGEUP](Repeat PRE-INTRO)

[Change up]
[G2]
e|---------------------------------|x3
B|---------------------------------|
G|---------------------------------|
D|-9-9-9-9-9-9-9-9-9-9-9-9-9-9-9-9-|
A|-9-9-9-9-9-9-9-9-9-9-9-9-9-9-9-9-|
D|-9-9-9-9-9-9-9-9-9-9-9-9-9-9-9-9-|
     ^ . . . . . . . . . . . . . .

[G2]
e|-------|
B|-------|
G|-------|
D|-2>/5>/|
A|-2>/5>/|
D|-2>/5>/| Slide into next part.

[G2]
e|---------------------------------|x3
B|---------------------------------|
G|---------------------------------|
D|-9-9-9-9-9-9-9-9-9-9-9-9-9-9-9-9-|
A|-9-9-9-9-9-9-9-9-9-9-9-9-9-9-9-9-|
D|-9-9-9-9-9-9-9-9-9-9-9-9-9-9-9-9-|
     ^ . . . . . . . . . . . . . .

[G2]
e|-------|
B|-------|
G|-------|
D|-2>/5>/|
A|-2>/5>/|
D|-2>/5>/| Slide into next part.

[Solo]
[G1]
[P1]
e|------------0h5------------------------------|
B|-7p0h7p0h7p0---7p0h7p0h7p0h5h7--h5h7>--h5h7>-|
G|------------------------------h7-----h7------|
D|---------------------------------------------|
A|---------------------------------------------|
D|---------------------------------------------|

[G1]
[P2]
e|------------0h5---------------------12-|(x2)
B|-7p0h7p0h7p0---0h5h7p0h5h7p0---h5h7-12-|
G|----------------------------h7>------ -|
D|------------------------------------- -|
A|------------------------------------- -|
D|------------------------------------- -|
                                      +
[G2 repeats the additions in VERSE 2.]
[Pre-Chorus 3](Reapeat PRE-CHORUS 1)
[Chorus 3](Repeat CHORUS 1)

************************************

| h  Hammer-on
| p  Pull-off
| .  Staccato
| s  Slap

************************************

            
            
Suggest correction
Creating personal tab
Creating personal tab
You can edit any tab online and save it as your Personal.

You can edit, replace or remove any tab part or add personal notes – all changes will be seen only by you.

Personal tabs can be accessed anytime from any device, even offline.
Learn more »
comments
print report bad tab
3 comments total.
+1 reply
GabiSpain 10 May 06, 2010 12:40 PM

easily one of the best tabs i've seen.. ever! congrats!

0 reply
CXA26483 104 Jul 20, 2010 05:47 AM

@GabiSpain: Thanks! I actually messed up a part that I'm correcting right now... =X

+1 reply
yankeesamuel 10 Feb 11, 2014 04:50 PM

E| E| E|
B| B| B| 4
G| G| 4 G| 4
D| 9 equals D| 4 not D| 2
A| 9 A| 2 A|
D| 9 D| D|

Same with

E| E| E|
B| B| B| 7
G| G| 7 G| 7
D| 12 equals D| 7 not D| 5
A| 12 A| 5 A|
D| 12 D| D|

guest
You may want to rate the tab now too:
select rating
Wanna post a correction for this tab? Suggest correction