Oops, an error
Loading. Please wait.
We have Chord Pro version of Im Like A Lawyer With The Way Im Always Trying To Get You Off Me And You.
It's the closest thing you can get to the original song and it has interactive parts. Check out the tab »
×

Im Like A Lawyer With The Way Im Always Trying To Get You Off Me And You tab

10,402 views 9 this week
1 commentread comment
1 2 3 4 5
x 10
add to favorites
×
Save as Personal and add changes to this tab that will be seen only by you. Learn more ›
×
You can save this tab as Personal to edit and correct it or add notes. All changes will be seen only by you. Learn more »
launch autoscroll
font size
0
reset
how to read this tab
guitar tuner
edit
Autoscroll
slow
fast
+/-
esc
set tempo
stop
Author
-------------------------------------------------------------------------------
Fall Out Boy - I'm Like A Lawyer With The Way I'm Always Trying To Get Off (Me + You)
-------------------------------------------------------------------------------
Tabbed by: buba1986
Email:buba1986@hotmail.co.uk

*Update* have figured out lead for chorus, enjoy :o)

*Update* Changed some of the chords in intro/verse and pre chorus

Tuning: Standard

Intro/Verse

e|---------------------------------------------------------------------------|
B|---------------------------------------------------------------------------|
G|-1-1---6-6---1-1---6-6---1-1-----------------------------------------------|
D|-3-3---6-6---3-3---6-6---3-3---3-3-x-x-4-4-4-4-----------------------------|
A|-1-1---4-4---1-1---4-4---1-1---3-3-x-x-4-4-4-4-----------------------------|
E|-------0-0---------0-0---------1-1-x-x-2-2-2-2-----------------------------|

Pre Chorus

e|---------------------------------------------------------------------------|
B|---------------------------------------------------------------------------|
G|---------1-1-1-1---------1-1-1-1---------6-6-6-6---------------------------|
D|-3-3-3-3-3-3-3-3-3-3-3-3-3-3-3-3-6-6-6-6-6-6-6-6-4--4-x7--3--3-x3--6-6-6-6-|
A|-3-3-3-3-1-1-1-1-3-3-3-3-1-1-1-1-6-6-6-6-4-4-4-4-4--4-----3--3-----6-6-6-6-|
E|-1-1-1-1---------1-1-1-1---------4-4-4-4---------2--2-----1--1-----4-4-4-4-|
                                                     p.m      p.m
Chorus

e|---------------------------------------------------------------------------|
B|----x8------x8--------------x8-----x8--------------------------------------|
G|--6-------3--------x16----3------6---------x8------------------------------|
D|--6-------3------4--------3------6-------4-----6~--------------------------|
A|--4-------1------4--------1------4-------4-----6~--------------------------|
E|-----------------2-----------------------2-----4~--------------------------|

Lead bit during chorus

e|---------------------------------------------------------------------------|
B|---15--14------------------------------------------------------------------|
G|-----------16--14----------------------------------------------------------|
D|---------------------17--16--14--16-16-------------------------------------|
A|---------------------------------------------------------------------------|
E|---------------------------------------------------------------------------|

Bridge

e|---------------------------------------------------------------------------|
B|---x8----------x8----------x8----------------------------------------------|
G|-3-------x8--6-------x8--3-------x8----x8--------x7------------------------|
D|-3-----4-----6-----3-----3-----4-----6-----6---6---------------------------|
A|-1-----4-----4-----3-----1-----4-----6-----6---6---------------------------|
E|-------2-----------1-----------2-----4-----4---4---------------------------|
                                                p.m
Bit of chorus after bridge

e|---------------------------------------------------------------------------|
B|-------------------------x8----x8------------------------------------------|
G|--6~----6~--------x16--3-----6------x16------------------------------------|
D|--6~----6~------4------3-----6----4----------------------------------------|
A|--4~----4~------4------1-----4----4----------------------------------------|
E|--0-----0-------2-----------------2----------------------------------------|

End on

e|-------------------------------------------------------------------------------|
B|-------------------------------------------------------------------------------|
G|-1~----------------------------------------------------------------------------|
D|-3~----------------------------------------------------------------------------|
A|-1~----------------------------------------------------------------------------|
E|-------------------------------------------------------------------------------|


| /  slide up
| \  slide down
| h  hammer-on
| p  pull-off
| ~  vibrato
| +  harmonic
| x  Mute note
===============================================================================

            
            
Suggest correction
Creating personal tab
Creating personal tab
You can edit any tab online and save it as your Personal.

You can edit, replace or remove any tab part or add personal notes – all changes will be seen only by you.

Personal tabs can be accessed anytime from any device, even offline.
Learn more »
comments
print report bad tab
1 comment total.
0 reply
NatNatpressplay 20 Jun 01, 2008 03:20 PM

is there any chance that someone could tab the version of this song from the live in phoenix album its alot more interesting and has all of these pretty riff and grace notes im useless at tabbing please consider it yeah thanks!

guest
You may want to rate the tab now too:
select rating
Wanna post a correction for this tab? Suggest correction