Oops, an error
Loading. Please wait.

Immortals Tab

version 3
version 3

Whole song

Interactive

37 views 6 this week
no commentswrite comment
1 2 3 4 5
2 more votes to show rating
add to favorites
launch autoscroll
font size
0
reset
how to read this tab
guitar tuner
Autoscroll
slow
fast
+/-
esc
set tempo
stop
Help us to improve Ultimate-Guitar.com Take our survey!
×
Author
*************************************************************************************************************

                                          Fall Out Boy - Immortals
                                Album: American Beauty/American Psycho [2015]

*************************************************************************************************************


Tuning: Standard, EADGBe



[Intro]

e|-----------------9--------------------9----|----------9h7p9-------------------(7)-(7)---|
B|---10---10------------12h14p12-------------|------------------12--------12--------------|
G|------------11-------------------11--------|-----11-----------------11------------------|
D|-------------------------------------------|--------------------------------------------|
A|-------------------------------------------|--------------------------------------------|
E|-------------------------------------------|--------------------------------------------|




[Verse 1]

 |--- PM --------------------------------------------------------------|

e|---------------------------------------------------------------------|
B|---------------------------------------------------------------------|
G|---------------------------------------------------------------------|
D|---------------------------------------------------------------------|
A|---9-9-9-9-9-9-9-9-9-9-9-9-9-9-9-9-9-9-9-9-9-9-9-9-9-9-9-9-9-9-9-9---|
E|---------------------------------------------------------------------|

 |--- PM --------------------------------------------------------------|

e|---------------------------------------------------------------------|
B|---------------------------------------------------------------------|
G|---------------------------------------------------------------------|
D|---------------------------------------------------------------------|
A|---5-5-5-5-5-5-5-5-5-5-5-5-5-5-5-5-5-5-5-5-5-5-5-5-5-5-5-5-5-5-5-5---|
E|---------------------------------------------------------------------|   (2x)




[Pre-Chorus]

 |--- PM ------------------------------------------------------------|

e|-------------------------------------------------------------------|
B|-------------------------------------------------------------------|
G|-------------------------------------------------------------------|
D|---------7---------------7---------------7---------------7---------|
A|---9-9-9---9-9-9-9-9-9-9---9-9-9-9-9-9-9---9-9-9-9-9-9-9---9-9-9---|
E|-------------------------------------------------------------------|

 |--- PM ------------------------------------------------------------|

e|-------------------------------------------------------------------|
B|-------------------------------------------------------------------|
G|-------------------------------------------------------------------|
D|---------4---------------4---------------4-------------------------|
A|---5-5-5---5-5-5-5-5-5-5---5-5-5-5-5-5-5---5-5-5-5-5-5-5-7-7-7-7---|
E|-------------------------------------------------------------------|

 |--- PM ------------------------------------------------------------|

e|-------------------------------------------------------------------|
B|-------------------------------------------------------------------|
G|-------------------------------------------------------------------|
D|---------7---------------7---------------7---------------7---------|
A|---9-9-9---9-9-9-9-9-9-9---9-9-9-9-9-9-9---9-9-9-9-9-9-9---9-9-9---|
E|-------------------------------------------------------------------|




[Chorus]

e|-------------------------------------------------------------|
B|-------------------------------------------------------------|
G|------------------------7------------------------------------|
D|---(x)-----4------------7------------7------------2----------|
A|---(x)-----4------------5---(8x)-----7------------2----------|
E|---(x)-----2---(8x)------------------5---(8x)-----0---(8x)---|   (4x)


e|-----------------9--------------------9----|----------9h7p9-------------------(7)-(7)---|
B|---10---10------------12h14p12-------------|------------------12--------12--------------|
G|------------11-------------------11--------|-----11-----------------11------------------|
D|-------------------------------------------|--------------------------------------------|
A|-------------------------------------------|--------------------------------------------|
E|-------------------------------------------|--------------------------------------------|




[Verse 2]

 |--- PM --------------------------------------------------------------|

e|---------------------------------------------------------------------|
B|---------------------------------------------------------------------|
G|---------------------------------------------------------------------|
D|---------------------------------------------------------------------|
A|---9-9-9-9-9-9-9-9-9-9-9-9-9-9-9-9-9-9-9-9-9-9-9-9-9-9-9-9-9-9-9-9---|
E|---------------------------------------------------------------------|

 |--- PM --------------------------------------------------------------|

e|---------------------------------------------------------------------|
B|---------------------------------------------------------------------|
G|---------------------------------------------------------------------|
D|---------------------------------------------------------------------|
A|---5-5-5-5-5-5-5-5-5-5-5-5-5-5-5-5-5-5-5-5-5-5-5-5-5-5-5-5-5-5-5-5---|
E|---------------------------------------------------------------------|

 |--- PM --------------------------------------------------------------|

e|---------------------------------------------------------------------|
B|---------------------------------------------------------------------|
G|---------------------------------------------------------------------|
D|---------------------------------------------------------------------|
A|---9-9-9-9-9-9-9-9-9-9-9-9-9-9-9-9-9-9-9-9-9-9-9-9-------------------|
E|---------------------------------------------------------------------|

 |--- PM --------------------------------------------------------------|

e|---------------------------------------------------------------------|
B|---------------------------------------------------------------------|
G|---------------------------------------------------------------------|
D|---------------------------------------------------------------------|
A|---5-5-5-5-5-5-5-5-5-5-5-5-5-5-5-5-5-5-5-5-5-5-5-5-5-5-5-5-5-5-5-5---|
E|---------------------------------------------------------------------|




[Pre-Chorus]

 |--- PM ------------------------------------------------------------|

e|-------------------------------------------------------------------|
B|-------------------------------------------------------------------|
G|-------------------------------------------------------------------|
D|---------7---------------7---------------7---------------7---------|
A|---9-9-9---9-9-9-9-9-9-9---9-9-9-9-9-9-9---9-9-9-9-9-9-9---9-9-9---|
E|-------------------------------------------------------------------|

 |--- PM ------------------------------------------------------------|

e|-------------------------------------------------------------------|
B|-------------------------------------------------------------------|
G|-------------------------------------------------------------------|
D|---------4---------------4---------------4-------------------------|
A|---5-5-5---5-5-5-5-5-5-5---5-5-5-5-5-5-5---5-5-5-5-5-5-5-7-7-7-7---|
E|-------------------------------------------------------------------|

 |--- PM ------------------------------------------------------------|

e|-------------------------------------------------------------------|
B|-------------------------------------------------------------------|
G|-------------------------------------------------------------------|
D|---------7---------------7---------------7---------------7---------|
A|---9-9-9---9-9-9-9-9-9-9---9-9-9-9-9-9-9---9-9-9-9-9-9-9---9-9-9---|
E|-------------------------------------------------------------------|




[Chorus]

e|-------------------------------------------------------------|
B|-------------------------------------------------------------|
G|------------------------7------------------------------------|
D|---(x)-----4------------7------------7------------2----------|
A|---(x)-----4------------5---(8x)-----7------------2----------|
E|---(x)-----2---(8x)------------------5---(8x)-----0---(8x)---|   (4x)




[Bridge]

e|---10---9------------------------------|
B|------------10---12-(12)---14----------|
G|----------------------------------11---|
D|---------------------------------------|
A|---------------------------------------|
E|---------------------------------------|   (2x)



[Chorus]

e|-------------------------------------------------------------|
B|-------------------------------------------------------------|
G|------------------------7------------------------------------|
D|---(x)-----4------------7------------7------------2----------|
A|---(x)-----4------------5---(8x)-----7------------2----------|
E|---(x)-----2---(8x)------------------5---(8x)-----0---(8x)---|   (4x)




[Outro]

e|-----------------9---------------9---|
B|---12---10-----------12\10-----------|
G|------------11--------------11-------|
D|-------------------------------------|
A|-------------------------------------|
E|-------------------------------------|



_____________________________________________________________________________________________________________

You can play it also in DROP D Tuning:



[Chorus]

e|-------------------------------------------------------------|
B|-------------------------------------------------------------|
G|-------------------------------------------------------------|
D|---(x)-----4------------0------------7------------2----------|
A|---(x)-----4------------0------------7------------2----------|
D|---(x)-----4---(8x)-----0---(8x)-----7---(8x)-----2---(8x)---|   (4x)




*************************************************************************************************************

| x   Dead note
| g   Grace note
|(n)  Ghost note
| h   Hammer-on
| p   Pull-off
| r   Release
| >   Accented note
| t   Tapping
| b   Bend
| br  Bend release
| pb  Pre-bend
| pbr Pre-bend release
| /   Slide up
| \   Slide down
| ~   Vibrato
| s   Slap
| P   Pop
| PM  Palm mute
| TR  Trill
| N   Tremolo

*************************************************************************************************************
Suggest correction
Give kudos to tab author, rate the tab!
1 2 3 4 5
comments
print report bad tab
guest
You may want to rate the tab now too:
select rating
Wanna post a correction for this tab? Suggest correction