Oops, an error
Loading. Please wait.

Infinity On High Bass Tab

version 1
version 1

Album

Interactive

22,070 views 12 this week
26 commentsread comments
1 2 3 4 5
x 27
add to favorites
launch autoscroll
font size
0
reset
guitar tuner
Autoscroll
slow
fast
+/-
esc
set tempo
stop
Help us to improve Ultimate-Guitar.com Take our survey!
×
Author
Artist: Fall Out Boy
Album: Infinity on High
Tabbed by: Valerie L.
except track 2, done by PickleBoy03


http://www.myspace.com/ijustloled

All songs are ear-transcribed by me, Valerie Louie (iheart_a7x) except for track 2 which
tabbed by PickleBoy03.  Hope you enjoy the album because it's one of my favorites of
Feel free to comment and give some feedback.  here's my e-mail if you want to contact me
iloled@yahoo.com

Track List:
1. Thriller
2. The Take Over, The Breaks Over
3. This Ain't A Scene, It's An Arms Race
4. I'm Like A Lawyer With The Way I'm Always Trying To Get You Off (Me & You)
5. Hum Hallelujah
6. Golden
7. Thnks Fr Th Mmrs
8. Don't You Know Who I Think I Am?
9. The (After) Life Of The Party
10. The Carpal Tunnel Of Love
11. Bang The Doldrums
12. Fame < Infamy
13. You're Crashing, But You're No Wave
14.I've Got All This Ringing In My Ears And None On My Fingers

1. Thriller

Intro:
G|----------------------|    |------|
D|----------------------|    |------|
A|----------------------|    |------|
D|-0000-0-0-0-0-00-0000-| x3 |-0~---|

Verses:
"Make us poster boys in your scene..."
G|--------------------------------------------------------------------------|
D|--------------------------------------------------------------------------|
A|--------------------------------------------------------------------------|
D|99999999-77777777-55555555-00000000-55555555-00000000-5555555555555555----|

"I found the safest place.."
G|-------------------------------------|
D|-------------------------------------|
A|-------------------------------------|
D|99999999-77777777-55555555-00000000-5|

Chorus: "Long live the car crash hearts..." repeat this 2x
G|-----------------------------------------------------------------------|
D|-----------------------------------------------------------------------|
A|-----------------------------------------------------------------------|
D|-00000000-99999999-4444444-77777777-55555555-9999999999-77-777-7777-777|

Back to Intro

"And a wave of my hand..."
G|-------------------------------------|
D|-------------------------------------|
A|-------------------------------------|
D|-00-00-00-00-00-00-00-00-00-0-000000-|

Repeat Verse

Chorus x2

Bridge: "Long....live the car crash hearts."
G|--------------|
D|--------------|
A|--------------|
D|-0~---0~---0--|

Back to Intro and finish.

2. The Take Over, The Breaks Over
tabbed by PickleBoy03

Verse x2
G|-----------------------------------|
D|-----------------------------------|
A|-44444444------------------22222-3-|
E|----------44444-3-22222222---------|

Pre-Chorus
G|--------------------------------------------------------------------|
D|--------------------------------------------------------------------|
A|----------44444-----------44444-2---------44444-----------4444-22-4-|
E|-55555555-------5-4444444---------5555555-------5-4444444-----------|

Pre-Verse x2
G|---------------------------------|
D|---------------------------------|
A|-4-4-4-4-----------------22222-3-|
E|---------44444-3-2-2-2-2---------|

Verse x2

Pre-Chorus
G|----------------------------------------------------------------|
D|----------------------------------------------------------------|
A|----------44444-----------44444-2---------44444-----------4444x-|
E|-55555555-------5-4444444---------5555555-------5-4444444-------|

Chorus Pt. 1
G|----------------------------------------|
D|----------------------------------------|
A|-7-77~-----------------4444444-22222222-|
E|-------7-77~-7-4-5-55~------------------|

Chorus Pt. 2
G|---------------------------------------------------------------------|
D|---------------------------------------------------------------------|
A|-7777777777777777----------------------------------44444444-22222222-|
E|------------------7777777777777-4-5555555555555555-------------------|

|Pause|

Solo x4
G|-----------------------------------|
D|-----------------------------------|
A|---------------------------44444---|
E|-55555555-77777-5-44444444-------4-|

|Pause|

Final Choruses
G|--------------------------------------|
D|--------------------------------------|
A|-7-77~---------------4444444-22222222-|
E|-------7-77~-4-5-55~------------------|

G|--------------------------------------------------|
D|--------------------------------------------------|
A|-7-77-77-77-------------------------4-44-42-22-22-|
E|------------7-77-77-77-4-5-55-55-55---------------|

G|---------------------------------------------------------------------|
D|---------------------------------------------------------------------|
A|-7777777777777777----------------------------------44444444-22222222-|
E|------------------7777777777777-4-5555555555555555-------------------|

3. This Ain't A Scene, It's An Arms Race

Verse "I am an arms dealer.."
G|--------------------------|
D|--------------------------|
A|0--0--0--0--3-------2-----|
E|--------------0--0----0-3-| x2

Pre-chorus "This ain't s a scene.."
G|-------------------------------------------------------------|
D|-------------------------------------------------------------|
A|----------------------------------------------2-2-2-2--------|
E|5-5-5-5-5-5-5-5-5-5-5-5-5-5-5-0-0-0-0-0-0-0-0---------0-0-0-0|

"I'm not a shoulder to cry on..."
G|-------------------------------------------------|
D|-------------------------------------------------|
A|-------------------------------------------------|
E|5-5-5-5-5-5-5-5-5-5-5-5-5-5-5-5-0-0-0-0-0-0-0-0~-|

Chorus
G|---------------------------------------------------------------------|
D|---------------------------------------------------------------------|
A|---------------------------------3333333333333333--------------------|
E|555555555555555-1111111111111111------------------333333333333333333-|

Verse "I wrote the gospel.."
G|---------------------------------------------------------------|
D|---------------------------------------------------------------|
A|---------------------------------------------------------------|
E|5-5-5-5-5-5-5-5-5-5-5-5-5-5-5-5-0-0-0-0-0-0-0-0-7-7-7-7-0-0-0-0| x2


eighth notes
Pre-Chorus
G|--------------------------------------------------------------------|
D|--------------------------------------------------------------------|
A|--------------------------------------------------------------------|
E|5555555555555555-00000000-7777-0000-5555555555555555-00000000-77-00-|

Chorus x2

Bridge right after chorus
G|----------------------------------------------------|
D|----------------------------------------------------|
A|5555555555555555------------------------------------|
E|-----------------5555555555555555-0000000000000000--|

G|------------------------------------------------------------------|
D|------------------------------------------------------------------|
A|---------------77-7-555555555555555--------------------------7~---|
E|55-5-77-7-88-8-----------------------5555555555555555-0~----------|

"This ain't a scene.."
G|------------------------------------|
D|------------------------------------|
A|------------------------------------|
E|5555555555555555-00000000-7777-0000-| x2

Chorus x2

outro
G|--------------------|
D|--------------------|
A|--------------------|
E|0000000000000000-3--|

4. I'm Like A Lawyer With The Way I'm Always Trying To Get You Off (Me & You)

standard tuning

/ Slide up
\ Slide down

if you want after you slide up to 8 you can slide back down to 1.

Intro:
G|------------------------------------|
D|------------------------------------|
A|-1/8---1-1/8-8-1-1/8-8--------------|
E|------------------------1-1-2-2-2-2-|

Pre-Chorus
"We're the new face of failure..."
G|----------------------------------------|
D|3-----------------3---------------------|
A|--3-0-3--1-3-4-6----3-0-3-11-33-44-66---|
E|----------------------------------------|

"Bullet proof..."
G|-------------------------------------|
D|-------------------------------------|
A|----------4-4-4-4--------------------|
E|4-4-4-4-4---------22222222-1111-4444-|

Chorus:
G|------------------------------------------------------------------|
D|------------------------------------------------------------------|
A|------------------------------------------------------------------|
E|-99999999-66666666-2222222222222222-66666666-99999999-22222222-4~-|


Verse: "Collect the bad habits..."
G|-------------------------------------|
D|-------------------------------------|
A|-1-1/8-8--1-1/8-8---1-1--------------|
E|------------------------1-1--2-2-2-2-| x2

Pre-Chorus
G|--------------------------------------------------------------------------|
D|3-----------------3-------------------------------------------------------|
A|--3-0-3--1-3-4-6----3-0-3-11-33-44-66----------44444444-------------------|
E|--------------------------------------444444444---------22222222-1111-4444|

Chorus x2

Bridge "The Best Way..."
G|---------------------------------------------------------------------------|
D|---------------------------------------------------------------------------|
A|-1/8--11111111----------44444444----------11111111-----------------------4~|
E|---------------22222222----------11111111----------22222222-44444444-4444--|

Chorus:
G|----------------------------------------------------|   |-----|
D|----------------------------------------------------|   |-----|
A|------------------11111111-44444444-----------------|   |-----|
E|-222222222222222--------------------2222222222222222|x2 |-2~--|


5. Hum hallelujah

Tuning: Drop D

Intro
G|--------|
D|--------|
A|--------|
D|-000-0--|  x4

Verse:
G|--------|
D|--------|
A|--------|
D|-000-0--| x2

G|----------------------------------------------------------------------------|
D|----------------------------------------------------------------------------|
A|---------------------55555555555-----55555555555----------------------------|
D|-999-9--555-5--000-0------------000-------------999-9-9999999-555-555555555-|

Pre-Chorus:
G|--------------------|     |-----------------------------------------|
D|--------------------|     |-----------------------------------------|
A|--------------------|     |-----------------------------------------|
D|-9-9--7-7--0-0--5-5-| x2  |-99-9-99-9-77-7-77-7-00-0-00-0-55-5-55-5-|

G|-------------------------------|
D|-----------------5555555555555-|
A|-------------------------------|
D|-555555555555555---------------|

Chorus
G|------------------------------------|-----------------------------|
D|------------------------------------|-----------------------------|
A|------------------------------------|-----------------------------|
D|-000-0-555-5-000-0-5-5/9-9999-55555-|-00-55-00-5/9999999-55555555-|

Verse:
G|--------|
D|--------|
A|--------|
D|-000-0--| x2

G|--------------------------------------------------------------------|
D|--------------------------------------------------------------------|
A|-------------999999999999-------1010101010101010--------------------|
D|-999-9-555-5--------------000-0------------------999999999-55555555-|

Pre-Chorus:
G|--------------------|     |-----------------------------------------|
D|--------------------|     |-----------------------------------------|
A|--------------------|     |-----------------------------------------|
D|-9-9--7-7--0-0--5-5-| x2  |-99-9-99-9-77-7-77-7-00-0-00-0-55-5-55-5-|

G|-------------------------------|
D|-----------------5555555555555-|
A|-------------------------------|
D|-555555555555555---------------|

Chorus x1

Bridge: keep the notes spaced out
G|------------------------------------|-----------------------------|
D|------------------------------------|-----------------------------|
A|------------------------------------|-----------------------------|
D|-0000000000000000-99999999-55555555-|-00000000-9999-7777-5555-7777|

G|------------------|
D|------------------|
A|------------------|
D|-0~-0-5~-50~-0-9--|

Chorus x2

6. Golden

There's no bass line for this song but I just decided to put one in for fun.  This is my
track on the album.  You can play this any rhythm you want.

Intro
G|----------------|
D|----------------|
A|-4--4-4-4-4-4>>-|
E|----------------|

Verse: "How cruel is the golden rule..."
G|--------------------------------------------------|------------------------------------|
D|--------------------------------------------------|------------------------------------|
A|-4--4-4444----------------4--4-4-4-4-4-4-4--------|-4-4444444------------4--4-4-4-4-4--|
E|-----------4--4-4-4-4-4-4------------------4446-8-|-----------4-4444444----------------|

-----------------------|
-----------------------|
4-4--------------------|
---1-111111-222222-----|

"I knew the lights in the city..."
G|---------------------------------|    |------------------------------|
D|---------------------------------|    |------------------------------|
A|-4--4-4-4-4-4-4-4----------------|    |-7--7-7-7-7-7-7-8-8-8-8-8-8-8-|
E|------------------4--4-4-4-4-4-4-| x3 |------------------------------|

Chorus: "And I saw God cry..."
G|-----------------------------|    |----------------------------------|
D|-----------------------------|    |----------------------------------|
A|----------------------6--6-6-|    |-6--6-6-6-6-6-6-6-4--4-4-4-4-4-4-4|
E|-1--1-1-3--3-3-4--4-4--------| x3 |----------------------------------|

Verse
Chorus

7. Thnks Fr Th Mmrs

Tuning: E Flat

This song can be played in standard and drop D, but I decided that it's much easier
this song in E FLAT.  E flat is like tuning down to Drop D, instead you use the sixth fret
the A string to tune down which is E Flat.

Verse: "And I want these words.."
G|--------------------------------------------------------------------|
D|--------------------------------------------------------------------|
A|-------------------------------------------44444444-----------------|
E|7777777777777777-66666666-22222222-00000000---------666666666-6~----|

Chorus:
G|-------------------------------------------------------------------------|
D|--------------------------------------------------------------------66---|
A|----------------------------------------------------------------66----66-|
E|77777777-33333333-00000000-3333-5555-77777777-33333333-55-55-55----------|x2

pre-Verse
G|------------------|
D|------------------|
A|------------------|
E|-7------7---------|

Verse: "Been looking forward..."
G|------------------------------------------------------------|
D|-88888888-77777777------------------------------------------|
A|-------------------88888888-6666666-44444444-22222222222222-|
E|------------------------------------------------------------|

G|------------------------------------------------------------|
D|-88888888-77777777------------------------------------------|
A|-------------------88888888-6666666-44444444-00000000000000-|
E|------------------------------------------------------------|

Chorus x2

Bridge: "they only say I think..."
G|------------------------------------|
D|-88888888-77777777------------------|
A|-------------------6666666-88888888-|
E|------------------------------------| x2

Breakdown:
G|---------------------|-------------|
D|---------------------|-------66----|
A|---------------------|----66----66-|
E|-7----7---55555555555|-55----------|

Chorus x2

end with:
G|-------|
D|-------|
A|-------|
E|-7~----|

8. Don't You Know Who I Think I Am?

Intro:
G|-------------------------|
D|-------------------------|
A|--------4444--666---4444-|
E|--666-4-----------6------| x4

Verse:
G|----------------|
D|----------------|
A|-------4-66---4-|
E|--66-4------6---| x4

Pre-Chorus:
G|-------------------------------------|------------------------------|
D|-------------------------------------|------------------------------|
A|-11111111----------44444444----------|-11111111----------44444444-4-|
E|----------44444444----------22222222-| ---------44444444------------|

Chorus:
G|-----------------------|---------------------|
D|-----------------------|---------------------|
A|-----------------------|---------------------|
E|-11-2-22-2-4-4-6-66-66-|-11-2-22-2-444444444-| x2

Verse:
G|------------------|
D|------------------|
A|--------4-666---4-|
E|-666-4-------6----| x4

Pre-Chorus x1
Chorus x3
Intro x8
Chorus x6

Ending:
G|------------------|
D|------------------|
A|--------4-666---4-|
E|-666-4-------6----| x2

9. The (After) Life of The party

Verse: "I'm a stitch awway.."
G|-------------------|
D|-------------------|
A|----55--1~------3~-|
E|-1~---------1~-----| x2

Chorus: "Cut it loose..."
G|-------------------------------------|
D|-------------------------------------|
A|-1111111111111111-----------33333333-|
E|------------------11111111-----------| x4

Verse x2
Chorus x4

Bridge: (2:08)
G|----------------------------------------------------------------------|
D|----------------------------------------------------------------------|
A|------------------5555555555555555--1111111111111111------------------|
E|-1111111111111111------------------------------------11111111-00000000|

G|-------------------------------------------------------------------|
D|-------------------------------------------------------------------|
A|-5555555555555555----------------1111111111111111------------------|
E|-----------------33333333333333-------------------11111111-00000000|

Chorus
G|-------------------------------------|   |------------|
D|-------------------------------------|   |---------23-|
A|-1111111111111111-----------33333333-|   |-3-0-1-3----|
E|------------------11111111-----------|x2 |------------|

G|-------------------------------------|    |-----|
D|-------------------------------------|    |-----|
A|-1111111111111111-----------33333333-|    |-----|
E|------------------11111111-----------| x2 |-1~--|

10. the Carpal Tunnel of love

Drop D

"We take sour sips.." (0:07)
G|---------------------------------------------------------------------------|
D|-12\-0000000000000-788888888888888-0000000000000000-788888888888\-00000000-|
A|---------------------------------------------------------------------------|
D|---------------------------------------------------------------------------|

"Stop by this disaster town.."
G|---------------------------------------------|
D|---------------------------------------------|
A|---------------------------------------------|
D|-00-7-88-7-55-7-88-88-1010(those are 10's)---| x2

"We might have started singing.."
G|-----------------------------------------------------------------------|
D|-----------------------------------------------------------------------|
A|-----------------------------------------------------------------------|
D|-88888888-77777777-000-000-333-333\-88888888-77777777-000-000-33332222-|

Chorus: "Whoa oh ah..."

G|--------------------------------------|--------------------------------------|
D|--------------------------------------|--------------------------------------|
A|--------------------------------------|--------------------------------------|
D|-00000000-33333333-88888888-5555-7-10-|-00000000-33333333-8888888-7777--5-3-0|

"We keep the beat.."
G|-------------------------------------------------------------------------------|
D|-------------------------------------------------------------------------------|
A|-------------------------------------------------------------------------------|
D|-12\-0000000000000-788888888888888-0000000000000000-788888888888\-00000000-----|

"Slept through the weekend.."
G|-----------------------------|
D|-----------------------------|
A|-----------------------------|
D|-00-7-88-7-55-7-88-88-1010---| x2

"We might have saying goodbyes..." (1:30)
G|--------------------------------------------------------|
D|--------------------------------------------------------|
A|--------------------------------------------------------|
D|-88888888-77777777-000-000-333-333/-88888888-77777777-0-|

Chorus x2:
G|--------------------------------------|-------------------------------------|
D|--------------------------------------|-------------------------------------|
A|--------------------------------------|-------------------------------------|
D|-00000000-33333333-88888888-5555-7-10-|-00000000-33333333-8888888-7777--5-3-|

Breakdown: (2:11)
G|------------------------------------------------------|------|
D|------------------------------------------------------|------|
A|---------------------------55-3-------------55-3------|------|
D|-0~-----0~-----00-00-00-00------00-00-00-00------00-00|------|

-----------------------------------|
-----------------------------------|
-----------------------------------|
-33-33-33-33-3333-77-77-77-77-7788-|x2

back to chorus x2
G|--------------------------------------|--------------------------------------|
D|--------------------------------------|--------------------------------------|
A|--------------------------------------|--------------------------------------|
D|-00000000-33333333-88888888-5555-7-10-|-00000000-33333333-8888888-7777--5-3-0|

11. bang The Doldrums

tuning: standard

Intro:
G|-----------------------------------|
D|-----------------------------------|
A|---------------44------------------|
E|-6-4-22-2-44-4----6-4-22-2-44-4-66-| x2

Verse:
G|-----------------|
D|-----------------|
A|-111-------------|
E|-----222-444-222-| x4

Pre-Chorus:
G|--------------------------|
D|--------------------------|
A|-6-6-66-------------------|
E|--------1-1-11-2-2-222222-| x2

Chorus
G|---------------------------------------------------------------|
D|---------------------------------------------------------------|
A|-44444444--------444444----------------------------------------|
E|----------555555--------6-4-22-55555-2-4-66-22222222-444444444-|

Intro x2
Verse x4
Pre-Chorus x2
Chorus x1
Intro x2
Verse x8

Bridge:
G|----------------------------------------|---------------------------------------|
D|----------------------------------------|---------------------------------------|
A|--------------------4444-3333-1111------|----------------------------111111-----|
E|-222222222-44444444----------------1111-|-222222222-44444444-1111111-------44444|

G|----------------------------------------|--------------------------------------------|
D|----------------------------------------|--------------------------------------------|
A|--------------------4444-3333-1111------|--------------------------11-11-------------|
E|-222222222-44444444----------------1111-|-22222222-4444444-1111111-------44-44-222222|

|-----|
|-----|
|--4~-|
|-----|

Chorus:
G|----------------------------------|
D|----------------------------------|
A|----------------------------------|
E|-6-4-22-5555555-2-4-66-22222222-4-|

Intro x8

12. Fame < Infamy

Tuning: Standard

Intro
G|-------------------------------------------------------------------|
D|-------------------------------------------------------------------|
A|-33333333----------11111111----------------------------------------|
E|----------44444444----------33333333-44444444-11111111-43-43-43-43-| x2

Verse:
G|--------------------------------------------------------------------------|
D|--------------------------------------------------------------------------|
A|------------33-3-33-------------------------------------------------------|
E|-3-43-43-43---------444-4-44-666-6-66-333-3-33-444-4-44-111-1-11-43-43-43-|

Pre-Chorus/Chorus: "When I'm home alone..."
G|-----------------------------------------|
D|-----------------------------------------|
A|-3-6------------------33-3-33-3-33-3-3-6-|
E|------11-1-11-11-1-11--------------------| x3

Chorus: "Signing off..."
G|------------------------------------------------------|
D|------------------------------------------------------|
A|------------------------------------------------------|
E|-44444444-66666666-1111111111111111-44444444-66666666-|

Back to Intro x1

Verse
G|---------------------------------------------------------------|
D|---------------------------------------------------------------|
A|-33-3-33-------------------------------------------------------|
E|---------444-4-44-666-6-66-333-3-33-444-4-44-111-1-11-43-43-43-| x2

Pre-chorus/Chorus x3
Chorus x1

Bridge I'm not too sure about the rhythm, but these are the correct notes.
G|----------------------------------------------------------------|
D|----------------------------------------------------------------|
A|-3~--3-3-3-3-3-3-3----------------------------------------------|
E|-------------------4-4-4-4-4-4-4-4-1-1-1-1-1-1-1-3-3-3-3-3-3-3-3|

Pre-Chorus/Chorus x3

Chorus/Ending:
G|-------------------------------------|--------------------------------------|
D|-------------------------------------|--------------------------------------|
A|----------11111111-33333333----------|---------11111111-3333333--------3-5-6|
E|-44444444-------------------33333333-|-4444444------------------333333------|

G|------------------------------------|
D|------------------------------------|
A|---------111-1-11-333-3-33----------|
E|-44-4-44-------------------333-3-33-| x2

13. You're Crashing But you're No Wave

Verse:
G|------------------------------------|    |--------------------|
D|------------------------------------|    |--------------------|
A|-5555555555555555-------------------|    |-5555555555555555---|
E|------------------66666666-33333333-| x2 |------------------6-|

"Everyone's looking for disbelief..."
Pre-Chorus repeat whole thing 2x:
G|----------------|    |-----------|
D|----------------|    |-----------|
A|-55-5-55-5-55-8-|    |-----------|
E|----------------| x3 |-3333-1111-|

Chorus
G|-----------------------------------------|---------------------------------|
D|-----------------------------------------|---------------------------------|
A|-------------------------------------5-8-|---------------------------------|
E|-66666666-11111111-333333-5--6666-56-----|-66666666-11111111-333333-5-666-6|

Verse
G|----------------------------|
D|----------------------------|
A|-5555555555555555-----------|
E|------------------66666666-3|

G|------------------------------------|--------------------|
D|------------------------------------|--------------------|
A|-5555555555555555-------------------|-5555555555555555---|
E|------------------66666666-33333333-|------------------6-|

Pre-Chorus repeat whole thing 2x:
G|----------------|    |-----------|
D|----------------|    |-----------|
A|-55-5-55-5-55-8-|    |-----------|
E|----------------| x3 |-3333-1111-|

Chorus x1

Bridge:
G|---------------------------------|
D|---------------------------------|
A|------------1-11-1-1-3-5-555-5--3|
E|-3-33-3-3-1----------------------| x2

rest

Chorus x2


14. I've Got All This Ringing In My Ears And None On My Fingers

intro:
G|-----|
D|-----|
A|-1/5-|
E|-----|

G|-----------------------------------------------------------------|
D|-----------------------------------------------------------------|
A|-----------------------------------------------------------------|
E|-44444444444444-2-111111111111111-0000000-22222222-4444444444444-|

Verse:
G|-------------------------------------------------------------------------------|
D|------------------------------------------------------66-----------6-----6-----|
A|----------------------------------------------------6----6-4-----6-----6-----6-|
E|-44444444444444-2-111111111111111-000000-22222222-4---------4--4-----4-----4---|

G|----------------------------------------------------------------|
D|----------------------------------------------------------------|
A|----------------------------------------------------------------|
E|-44444444444444-2-111111111111111-000000-22222222-4444444444444-|

G|------------------------------|
D|-----66------------4-----4----|
A|---6----6-4------4-----4----4-|
E|-4----------4--2-----2----2---|

Chorus
G|-------------------------------------------------|---------------------|
D|----------------------------4-1------------1-----|---------------------|
A|-22222222-------------22222-----2---6-4------2-1-|-66666666------------|
E|----------00-22-33-55-------------4-----4-2------|----------00-22-33-55|

Break:
G|-----------------------------------|---------------------------------------|
D|-----------------------------------|---------------------------------------|
A|--------------------444444444444444|--------------------4~-4~-4~-4-44-44-66|
E|-22222222-4444-2222----------------|-22222222-4444-2222--------------------|

Verse:
G|-------------------------------------------------------------------------------|
D|------------------------------------------------------66-----------6-----6-----|
A|----------------------------------------------------6----6-4-----6-----6-----6-|
E|-44444444444444-2-111111111111111-000000-22222222-4---------4--4-----4-----4---|

G|----------------------------------------------------------------|
D|----------------------------------------------------------------|
A|----------------------------------------------------------------|
E|-44444444444444-2-111111111111111-000000-22222222-4444444444444-|

G|------------------------------|
D|-----66------------4-----4----|
A|---6----6-4------4-----4----4-|
E|-4----------4--2-----2----2---|

Chorus x1

Bridge
G|------------------------------------------------------------------------|
D|------------------------------------------------------------------------|
A|-------------------444444444444--------------------4-44-4-44-44444-44444|
E|-2222222-4444-2222--------------22222222-4444-2222----------------------|

Chorus:
G|-------------------------------------------------|------------------|
D|----------------------------4-1------------1-----|------------------|
A|-22222222-------------22222-----2---6-4------2-1-|-66666666---------|
E|----------00-22-33-55-------------4-----4-2------|----------00000000|

G|----------------------|    |-------------------|
D|----------------------|    |-------------------|
A|-22222222-------------|    |-2222222-2/6-66----|
E|----------00-22-33-55-| x4 |----------------0~-|

This is the whole album! Hope you enjoyed it. Have fun!
Suggest correction
comments
print report bad tab
26 comments total. Showing first comments.
0 reply
Arlin 166 Feb 16, 2007 07:09 AM

Woah! This is just what I needed!
I may be pushing it, but could you tab the UK bonus track (aswell as "This Ain't A Scene.." B-side) "G.I.N.A.S.F.S"
Thanks, and top job

0 reply
iheart_a7x 3,681 Feb 16, 2007 10:58 AM

Thanks, I might do that one this week if I have time.

0 reply
Pickleboy03 80 Feb 16, 2007 04:55 PM

Haha, thanks for the credit of "The Take Over, the Breaks Over." Good tabbing, I give 5 stars!

guest
You may want to rate the tab now too:
select rating
Wanna post a correction for this tab? Suggest correction