Oops, an error
Loading. Please wait.
We have an official Irresistible tab made by UG professional guitarists. Check out the tab »
×
988 views 9 this week
no commentswrite comment
1 2 3 4 5
x 3
add to favorites
×
Save as Personal and add changes to this tab that will be seen only by you. Learn more ›
×
You can save this tab as Personal to edit and correct it or add notes. All changes will be seen only by you. Learn more »
launch autoscroll
font size
0
reset
how to read this tab
guitar tuner
edit
Autoscroll
slow
fast
+/-
esc
set tempo
stop
This Is The Tab For The Solo In Fall Out Boy's Song Irresistible. It has a cool
bluesy thing going on. 

It comes inn with repeated notes on the 14th fret on the E string at 
"Try To Say Live, Live and Let Live" on the Third Verse (Bridge)
Audio File Here: https://drive.google.com/file/d/0B4435DWDkeAzVEw1WjRBM0NOOGM/view?usp=sharing

"Live And Let Live":

E|--14--14--14--14--14--14--14--14--14--14--14--14--14--14--14--14-|-14--12----------
B|-----------------------------------------------------------------|---------15--12--
G|-----------------------------------------------------------------|-----------------
D|-----------------------------------------------------------------|-----------------
A|-----------------------------------------------------------------|-----------------
E|-----------------------------------------------------------------|-----------------

"Except When They're Your's":

E|------------------------10------|---------10-------------------------------------
B|--12--10h12-----------------12--|--10h12------12--10-----7-----3/5/7b7--5--3--0--
G|-------------11--9--11----------|------------------------------------------------
D|--------------------------------|------------------------------------------------
A|--------------------------------|------------------------------------------------
E|--------------------------------|------------------------------------------------
It's pretty simple when you have it down! Thanks!

            
            
Suggest correction
Creating personal tab
Creating personal tab
You can edit any tab online and save it as your Personal.

You can edit, replace or remove any tab part or add personal notes – all changes will be seen only by you.

Personal tabs can be accessed anytime from any device, even offline.
Learn more »
Give kudos to tab author, rate the tab!
1 2 3 4 5
comments
print report bad tab
guest
You may want to rate the tab now too:
select rating
Wanna post a correction for this tab? Suggest correction