Oops, an error
Loading. Please wait.

Its Hard To Say I Do When I Dont tab

version 1
version 1

Whole song

Interactive

10,683 views 6 this week
15 commentsread comments
1 2 3 4 5
x 21
add to favorites
×
Save as Personal and add changes to this tab that will be seen only by you. Learn more ›
×
You can save this tab as Personal to edit and correct it or add notes. All changes will be seen only by you. Learn more »
launch autoscroll
font size
0
reset
how to read this tab
guitar tuner
edit
Autoscroll
slow
fast
+/-
esc
set tempo
stop
Song:"It's Hard to Say 'I Do', When I Don't"
Album:Infinity on High
Artist:Fall Out Boy
Date Tabbed:February,2007
Guitar Tabber:Ryan Manongdo/16/m/Philippines
              no_falter0x@yahoo.com(MySpace,Friendster&YM)

For your questions or suggestions just post a comment,Pm or Emil me:-)

Gtr.Legends:
. - palm muting
~ - let it ring
x - dead string or scratching

Gtr.Tuning:Drop D(Alternative)

Intro:
Gtr.1
e|-----------------------------------------------------------------------------|
B|-----------------------------------------------------------------------------|
G|----10101010---------------10101010--------------10101010--------------------|
D|-55--x-x-x-x--33-5-3---11--x-x-x-x--33-5-3----55--x-x-x-x--33-5-3--1111111---|
A|-55--8-8-8-8--33-3-1---11--8-8-8-8--33-3-1----55--8-8-8-8--33-3-1--1111111---|
D|-55-----------33-------11-----------33--------55-----------33------1111111---|
   ..           ..       ..           ..        ..           ..      .......

Gtr.2:
e|-----------------------------------------------------------------------------------|
B|-----------------------------------------------------------------------------------|
G|----10101010---------------10101010--------------10101010-----------3~-5~-7~-10~---|
D|-55--x-x-x-x--33-5-3---11--x-x-x-x--33-5-3----55--x-x-x-x--33-5-3---x--x--x---x----|
A|-55--8-8-8-8--33-3-1---11--8-8-8-8--33-3-1----55--8-8-8-8--33-3-1---1~-3~-5~--8~---|
D|-55-----------33-------11-----------33--------55-----------33----------------------|
   ..           ..       ..           ..        ..           ..

Verse:I speak fast...
Gtr.1
e|----------------------------------|
B|----------------------------------|
G|----------------------------------| 2x
D|-8888-7777---55-555555-55-55555---|
A|-8888-7777---55-555555-55-55555---|
D|-8888-7777---55-555555-55-55555---|
   .... ....   .. xxxxxx .. xxxxx

Gtr.2 Enters:
e|------------------------------------------|
B|------------------------------------------|
G|----1010------------------1010------------|
D|-88-------12121212-88--77------12121212---|
A|------------------------------------------|
D|------------------------------------------|
   .. ....  ........ ..  .. .... ........

Pre-Chorus 1:You're apealing to emotion...
Gtr.1
e|------------------------|      
B|------------------------|      
G|------------------------| 2x   
D|-11--11---55--888-333---|  
A|-11--11---55--888-333---|      
D|-11--11---55--888-333---|     
   ..  ..   ..

Gtr.2
e|-6-5------      -6-5---|
B|-----6----      -------|
G|---------- 7x   -------|
D|---------- Then -------|
A|----------      -------|
D|----------      -------|

This is a stick up...
Gtr.1
e|--------------------------------------------|
B|--------------------------------------------|
G|--------------------------------------------|
D|-8888888888888---88--88--8--8888-10101010---|
A|-6666666666666---66--66--6--6666--8-8-8-8---|
D|--------------------------------------------|
   .............   ..  ..  .  

Gtr.2
e|-6-6-6-6-6-6-6-6-5---6-5---6-5----------|
B|-------------------6-----6--------------|
G|----------------------------------------|
D|--------------------------------22222---|
A|--------------------------------22222---|
D|--------------------------------22222---|
   . . . . . . .  

Chorus:Put your hands...
Gtr.1
e|--------------------------------------|
B|--------------------------------------|
G|--------------------------------------| 2x
D|-88--33--55--88--55--88--0~--2~--3~---|
A|-88--33--55--66--55--66--0~--2~--3~---|
D|-88--33--55------55------0~--2~--3~---|
   ..  ..  ..  ..  ..  ..   

Gtr.2
e|-----------      --------------|
B|-----------      --------------|
G|----------- 6x   --------------| 2x
D|-88-77----- Then -0~--2~--3~---|
A|-------88--      -0~--2~--3~---|
D|-----------      -0~--2~--3~---|

Verse 2:When I said...
Play Verse 1

Repeat Pre-Chorus:

Repeat Chorus:

And there's nothing in your head
Gtr.1
e|--------------------------------------------|
B|--------------------------------------------|
G|--------------------------------------------|
D|-8888-3333-5555-8888-5555-8888-0000-22-33---|
A|-8888-3333-5555-6666-5555-6666-0000-22-33---|
D|-8888-3333-5555------5555------0000-22-33---|

Gtr.2
e|------------------------------------------------------------|
B|------------------------------------------------------------|
G|-101010101010-12-10---77777777777777777777777777777777777---|
D|--x-x-x-x-x-x-xx--x---xxxxxxxxxxxxxxxxxxxxxxxxxxxxxxxxxxx---|
A|--8-8-8-8-8-8-10--8---55555555555555555555555555555555555---|
D|------------------------------------------------------------|



Bridge prt.1(Clean Gtr.):
e|---------------------------------------------|
B|---------------------------------------------|
G|----10101010---------------10101010----------| 2x
D|-55--x-x-x-x--33-5-3---11--x-x-x-x--33-5-3---| 
A|-55--8-8-8-8--33-3-1---11--8-8-8-8--33-3-1---|
D|-55-----------33-------11-----------33-------|
   ..           ..       ..           ..       

Bridge prt.2(Distorted):
Gtr.1
e|-----------------------------------------------------------------------------|
B|-----------------------------------------------------------------------------|
G|----10101010---------------10101010--------------10101010--------------------| 
D|-55--x-x-x-x--33-5-3---11--x-x-x-x--33-5-3----55--x-x-x-x--33-5-3--1111111---|
A|-55--8-8-8-8--33-3-1---11--8-8-8-8--33-3-1----55--8-8-8-8--33-3-1--1111111---|
D|-55-----------33-------11-----------33--------55-----------33------1111111---|
   ..           ..       ..           ..        ..           ..      .......

Gtr.2:
e|-----------------------------------------------------------------------------------|
B|-----------------------------------------------------------------------------------|
G|----10101010---------------10101010--------------10101010-----------3~-5~-7~-10~---|
D|-55--x-x-x-x--33-5-3---11--x-x-x-x--33-5-3----55--x-x-x-x--33-5-3---x--x--x---x----|
A|-55--8-8-8-8--33-3-1---11--8-8-8-8--33-3-1----55--8-8-8-8--33-3-1---1~-3~-5~--8~---|
D|-55-----------33-------11-----------33--------55-----------33----------------------|
   ..           ..       ..           ..        ..           ..

Chorus 2:Put your hands...
e|-----------------------------|
B|-----------------------------|
G|-----------------------------|
D|-88--Drums--xx-xx-xx--2--3---|
A|-88---------xx-xx-xx--2--3---|
D|-88---------xx-xx-xx--2--3---|

And there's nothing in your head
Gtr.1
e|--------------------------------------------|
B|--------------------------------------------|
G|--------------------------------------------|
D|-8888-3333-5555-1111-5555-1111-0000-22-33---|
A|-8888-3333-5555-1111-5555-1111-0000-22-33---|
D|-8888-3333-5555-1111-5555-1111-0000-22-33---|

Gtr.2
e|------------------------------------------------------------|
B|------------------------------------------------------------|
G|-101010101010-12-10--1010101010-12--777777777777777777777---|
D|--x-x-x-x-x-x-xx--x---x-x-x-x-x-xx--xxxxxxxxxxxxxxxxxxxxx---|
A|--8-8-8-8-8-8-10--8---8-8-8-8-8-10--555555555555555555555---|
D|------------------------------------------------------------|



Outro:ahhhhhhh...We gonna shoot you...
Gtr.1
e|----------------------------------|
B|----------------------------------|
G|----------------------------------|
D|-8888-3333-5555-8888-5555-8~--8---|
A|-8888-3333-5555-6666-5555-6~--6---|
D|-8888-3333-5555------5555---------|
                                .
Gtr.2
e|-----------      ---------|
B|-----------      ---------|
G|----------- 6x   ---------| 
D|-88-77----- Then -8~--8---|
A|-------88--      -6~--6---|
D|-----------      ---------|
                        .

End...


"It's Hard to Say 'I Do', When I Don't" Lyrics:

Verse 1
I speak fast and I'm not gonna repeat myself
So listen carefully to every word I say:
"I'm the only one who's gonna get away with making excuses today,

Pre-Chorus 1:
You're appealing to emotions that I simply do not have"
Blackmailed myself
Cause I ain't got anyone else
"This is a stick up
Give us all your inspiration"
I've got the red carpet blues baby

Chorus 1:
"Put your hands in the air and don't make a sound
But don't get the wrong idea
We're gonna shoot you
We're gonna shoot you
And there's nothing in your head or pocket, throat or wallet
That could change just how this goes
No
We're gonna shoot you
We're gonna shoot you"

Verse 2:
When I said that I'd return to you I meant more like a relapse
Now again I think "His and her's" "For better or worse"
But the only ring I want buried with me are the ones around my eyes

Pre-Chorus 2:
"You're appealing to emotions that I simply do not have"
I've got the red carpet blues baby

Repeat Chorus:

Chorus 2:
"Put your hands in the air and don't make a sound
But don't get the wrong idea
We're gonna shoot you
We're gonna shoot you
And there's nothing in your head or pocket, throat or wallet
That could change just how this goes"
And everyone shakes to the beat with a barrel down their throat

Outro:
Ahhhhhhh
Ahhhhhhh
We gonna shoot you
We gonna shoo you


            
            
Suggest correction
Creating personal tab
Creating personal tab
You can edit any tab online and save it as your Personal.

You can edit, replace or remove any tab part or add personal notes – all changes will be seen only by you.

Personal tabs can be accessed anytime from any device, even offline.
Learn more »
comments
print report bad tab
15 comments total. Showing first comments.
0 reply
glennthrower 30 Feb 17, 2007 03:04 AM

Where is this on the infinity on high album?

0 reply
No_Falter08 2,414 Feb 17, 2007 03:28 AM

yah man!!Side B of Infinity on High album!!G.I.N.A.S.F.S is also FOB song:-)

0 reply
LOVECANTSAVEYOU 71 Feb 17, 2007 11:13 AM

huh? wait there is a side b? huh can you explain. did you have to buy a certain edition? i pre ordered mine. answer please??

guest
You may want to rate the tab now too:
select rating
Wanna post a correction for this tab? Suggest correction