Oops, an error
Loading. Please wait.
We have an official Ive Got A Dark Alley And A Bad Idea That Says You Should Shut Your Mouth Summer Song tab made by UG professional guitarists. Check out the tab »
×

Ive Got A Dark Alley And A Bad Idea That Says You Should Shut Your Mouth Summer Song tab

1,071 views 1 this week
1 commentread comment
1 2 3 4 5
1 last vote to show rating
add to favorites
×
Save as Personal and add changes to this tab that will be seen only by you. Learn more ›
×
You can save this tab as Personal to edit and correct it or add notes. All changes will be seen only by you. Learn more »
launch autoscroll
font size
0
reset
how to read this tab
guitar tuner
edit
Autoscroll
slow
fast
+/-
esc
set tempo
stop
Author
Difficulty
    I've Got a Dark Alley, and a Bad Idea You Should Keep Your Mouth Shut       

165 BPM
                                                                    Fall Out Boy
Track 1(Track two after this part)



     E  H.           S S    H        Q.     E     H.           E  S S  
E||------------------3-3-|--3--------L------3--|--3------------3--3-3-|
B||------------------1-1-|--1--------L------1--|--1------------1--0-0-|
G||------------------0-0-|--0--------L------0--|--0------------0--0-0-|
D||------------------0-0-|--0--------L------0--|--0------------0--0-0-|
A||------------------x-x-|--x--------L------x--|--x------------x--x-x-|
E||------------------3-3-|--3--------L------3--|--3------------3--3-3-|


  H        Q.     E     H        E  E  E  S S    Q    Q    E  E  E  E   
--3--------L------3--|--3--------L--3--3--3-3-|--3------------3-----3--|
--0--------L------0--|--0--------L--0--0--1-1-|--1------------1-----1--|
--0--------L------0--|--0--------L--0--0--0-0-|--0------------0-----0--|
--0--------L------0--|--0--------L--0--0--0-0-|--0----0----0--0--0--0--|
--x---------------x--|--x-----------x--x--x-x-|--x----x----x--x--x--x--|
--3--------L------3--|--3--------L--3--3--3-3-|--3----3----3--3--3--3--|


  Q    E  E  E  E  E  E     Q    Q    E  E  E  E     E  E  E  E  E  E  E  E   
--3----3--3--3--3--3--3--|--3------------3-----3--|-----3--3--3--3--3--3--3--|
--1----1--1--1--1--0--0--|--0------------0-----0--|-----0--0--0--0--0--0--0--|
--0----0--0--0--0--0--0--|--0------------0-----0--|-----0--0--0--0--0--0--0--|
--0----0--0--0--0--0--0--|--0----0----0--0--0--0--|--0--0--0--0--0--0--0--0--|
--x----x--x--x--x--x--x--|--x----x----x--x--x--x--|--x--x--x--x--x--x--x--x--|
--3----3--3--3--3--3--3--|--3----3----3--3--3--3--|--3--3--3--3--3--3--3--3--|


                                 >                                          
  Q    E  E  E  Q    E     E  E  Q    E  E  E  E     Q    E  E  E  Q    E   
--3----3--3--L--3----3--|--3--3--3----L--3--3--3--|--3----3--3--L--3----3--|
--1----1--1--L--0----1--|--1--1--1----L--1--1--0--|--1----1--1--L--0----1--|
--0----0--0--L--0----2--|--2--2--2----L--2--2--0--|--0----0--0--L--0----2--|
--2----2--2--L--2----x--|--x--x--x----L--x--x--0--|--2----2--2--L--2----x--|
--3----3--3--L--3----3--|--3--3--3----L--3--3-----|--3----3--3--L--3----3--|
--0----0--0--L--0----1--|--1--1--1----L--1--1-----|--0----0--0--L--0----1--|


  E  E  Q    E  E  E  E     Q    E  E  E  Q    E     E  E  Q    E  E  E  E   
--3--3--3----L--3--3--3--|--3----3--3--L--3----3--|--3--3--3----L--3--3--3--|
--1--1--1----L--1--1--0--|--1----1--1--L--0----1--|--1--1--1----L--1--1--0--|
--2--2--2----L--2--2--0--|--0----0--0--L--0----2--|--2--2--2----L--2--2--0--|
--x--x--x----L--x--x--0--|--2----2--2--L--2----x--|--x--x--x-------x--x--0--|
--3--3--3----L--3--3-----|--3----3--3--L--3----3--|--3--3--3----L--3--3-----|
--1--1--1----L--1--1-----|--0----0--0--L--0----1--|--1--1--1----L--1--1-----|


  Q    Q    E  E  E  E     E  E  Q    E  E  E  E     Q    E  E  E  Q    E   
--3----3----3--3--3--3--|--L--3--3----3--3--3--3--|--3----3--3--L--3----3--|
--1----1----1--1--1--0--|--L--0--0----0--0--0--0--|--1----1--1--L--0----1--|
--0----0----0--0--0--0--|--L--0--0----0--0--0--0--|--0----0--0--L--0----2--|
--0----0----0--0--0--0--|--L--0--0----0--0--0--0--|--2----2--2--L--2----x--|
--x----x----x--x--x--x--|-----x--x----x--x--x--x--|--3----3--3--L--3----3--|
--3----3----3--3--3--3--|--L--3--3----3--3--3--3--|--0----0--0--L--0----1--|


        >                                                                    
  E  E  Q    E  E  E  E     Q    E  E  E  Q    E     E  E  Q    E  E  E  E   
--3--3--3----L--3--3--3--|--3----3--3--L--3----3--|--3--3--3----L--3--3--3--|
--1--1--1----L--1--1--0--|--1----1--1--L--0----1--|--1--1--1----L--1--1--0--|
--2--2--2----L--2--2--0--|--0----0--0--L--0----2--|--2--2--2----L--2--2--0--|
--x--x--x----L--x--x--0--|--2----2--2--L--2----x--|--x--x--x----L--x--x--0--|
--3--3--3----L--3--3-----|--3----3--3--L--3----3--|--3--3--3----L--3--3-----|
--1--1--1----L--1--1-----|--0----0--0--L--0----1--|--1--1--1----L--1--1-----|


  Q    E  E  E  Q    E     E  E  Q    E  E  E  E     Q    Q    E  E  E  E   
--3----3--3--L--3----3--|--3--3--3----L--3--3--3--|--3----3----3--3--3--3--|
--1----1--1--L--0----1--|--1--1--1----L--1--1--0--|--1----1----1--1--1--0--|
--0----0--0--L--0----2--|--2--2--2----L--2--2--0--|--0----0----0--0--0--0--|
--2----2--2--L--2----x--|--x--x--x-------x--x--0--|--0----0----0--0--0--0--|
--3----3--3--L--3----3--|--3--3--3----L--3--3-----|--x----x----x--x--x--x--|
--0----0--0--L--0----1--|--1--1--1----L--1--1-----|--3----3----3--3--3--3--|


  E  E  Q    E  E  E  E     W                   E  E  E  E  E  E  Q     
--L--3--3----3--3--3--3--|--3----------------|-----0-----------3--0----|
--L--0--0----0--0--0--0--|--1----------------|--------1--1-------------|
--L--0--0----0--0--0--0--|--0----------------|--------------0----------|
--L--0--0----0--0--0--0--|--2----------------|-------------------------|
-----x--x----x--x--x--x--|--3----------------|-------------------------|
--L--3--3----3--3--3--3--|--0----------------|-------------------------|


  W                                                                             
--L----------------|-------------------|-------------------|-------------------|
-------------------|-------------------|-------------------|-------------------|
-------------------|-------------------|-------------------|-------------------|
-------------------|-------------------|-------------------|-------------------|
-------------------|-------------------|-------------------|-------------------|
-------------------|-------------------|-------------------|-------------------|


                                          Q    Q     Q    Q     
-------------------|-------------------|--0--------------------|
-------------------|-------------------|-------0h----1---------|
-------------------|-------------------|-----------------------|
-------------------|-------------------|------------------3----|
-------------------|-------------------|-----------------------|
-------------------|-------------------|-----------------------|


  H.             Q       Q      Q      Q     Q       H        E  E  E  E   
----------------------|---------------------------|-----------3--3--3-----|
----------------------|---------------------------|-----------1--1--1--0--|
----------------------|---------------------------|-----------0--0--0--0--|
--L------------3g5----|---------------------------|-----------0--0--0--0--|
----------------------|--5h----(5)s----3s----2----|--L--------x--x--x--0--|
----------------------|---------------------------|-----------3--3--3--0--|


  Q    E  E  E  E  E  E     Q    E  E  E  E  E  E     Q    E  E  E  E  E  E   
--0----0--0--0--0--0--x--|--0----0--0--0--0--0--0--|--0----0--0--0--0--0--0--|
--0----0--0--0--0--0--x--|--1----1--1--1--1--1--1--|--1----1--1--1--1--1--1--|
--2----2--2--2--2--2--x--|--0----0--0--0--0--0--0--|--0----0--0--0--0--0--0--|
--3----3--3--3--3--3--x--|--2----2--2--2--2--2--2--|--2----2--2--2--2--2--2--|
--3----3--3--3--3--3--x--|--0----0--0--0--0--0--0--|--3----3--3--3--3--3--3--|
--1----1--1--1--1--1--x--|-------------------------|-------------------------|


  Q    E  E  E  E  E  E     Q    E  E  E  E  E  E     Q    E  E  E  E  E  E   
--3----3--3--3--3--3--3--|--3----3--3--3--3--3--3--|--3----3--3--3--3--3--3--|
--0----0--0--0--0--0--0--|--1----1--1--1--1--1--1--|--1----1--1--1--1--1--1--|
--0----0--0--0--0--0--0--|--0----0--0--0--0--0--0--|--2----2--2--2--2--2--2--|
--0----0--0--0--0--0--0--|--2----2--2--2--2--2--2--|--x----x--x--x--x--x--x--|
--x----x--x--x--x--x--x--|--3----3--3--3--3--3--3--|--3----3--3--3--3--3--3--|
--3----3--3--3--3--3--3--|--0----0--0--0--0--0--0--|--1----1--1--1--1--1--1--|


  E  E  Q    E  E  E  E     E  E  E  E  E  E  E  E     E  E  Q    E  E  E  E   
--3--3--3----3--3--3--3--|--L--3--3--3--3--3--x--x--|--0--0--0----0--0-----0--|
--1--1--1----1--1--1--0--|--L--0--0--0--0--0--x--x--|--1--1--1----1--1-----0--|
--0--0--0----0--0--0--0--|--L--0--0--0--0--0--x--x--|--2--2--2----2--2--x--2--|
--0--0--0----0--0--0--0--|--L--0--0--0--0--0--x--x--|--2--2--2----2--2--x--3--|
--x--x--x----x--x--x--x--|-----x--x--x--x--x--x--x--|--0--0--0----0--0--x--3--|
--3--3--3----3--3--3--3--|--L--3--3--3--3--3--x--x--|----------------------1--|


  E  E  Q    E  E  E  E     Q    Q    E  E  E  E     E  E  Q    E  E  E  E   
--L--0--0----0--0--0--x--|--0----0----0--0--0--3--|--L--3--3----3--3--3--3--|
--L--0--0----0--0--0--x--|--1----1----1--1--1--0--|--L--0--0----0--0--0--0--|
--L--2--2----2--2--2--x--|--0----0----0--0--0--0--|--L--0--0----0--0--0--0--|
--L--3--3----3--3--3--x--|--2----2----2--2--2--0--|--L--0--0----0--0--0--0--|
--L--3--3----3--3--3--x--|--3----3----3--3--3--x--|-----x--x----x--x--x--x--|
--L--1--1----1--1--1--x--|---------------------3--|--L--3--3----3--3--3--3--|


  Q    Q    E  E  E  E     E  E  Q    E  E  E  E     E  E  E  E  E  E  E  E   
--3----3----3--3--3--3--|--L--3--3----3--3--3--3--|--3--3--3--3--3--3--3--3--|
--1----1----1--1--1--1--|--L--1--1----1--1--1--1--|--1--1--1--1--1--1--1--1--|
--0----0----0--0--0--2--|--L--2--2----2--2--2--2--|--0--0--0--0--0--0--0--0--|
--2----2----2--2--2--x--|--L--x--x----x--x--x--x--|--0--0--0--0--0--0--0--0--|
--3----3----3--3--3--3--|--L--3--3----3--3--3--3--|--x--x--x--x--x--x--x--x--|
--0----0----0--0--0--1--|--L--1--1----1--1--1--1--|--3--3--3--3--3--3--3--3--|


  E  E  E  E  E  E  E  E     H.           E  E     W                 
--3--3--3--3--3--3--3--3--|--3---------------3--|-------------------|
--0--0--0--0--0--0--0--0--|--1------------1-----|--1----------------|
--0--0--0--0--0--0--0--0--|--0------------------|-------------------|
--0--0--0--0--0--0--0--0--|--2------------------|-------------------|
--x--x--x--x--x--x--x--x--|--3------------------|-------------------|
--3--3--3--3--3--3--3--3--|--0------------------|-------------------|


  H        H           W                   Q    Q     Q    Q     
--------------------|-------------------|--0--------------------|
--L-----------------|-------------------|-------0h----1---------|
--------------------|-------------------|-----------------------|
--------------------|-------------------|------------------3----|
--------------------|-------------------|-----------------------|
--------------------|-------------------|-----------------------|


  H.             Q       Q      Q      Q     Q       H        E  E  E  E   
----------------------|---------------------------|-----------3--3--3-----|
----------------------|---------------------------|-----------1--1--1--0--|
----------------------|---------------------------|-----------0--0--0--0--|
--L------------3g5----|---------------------------|-----------0--0--0--0--|
----------------------|--5h----(5)s----3s----2----|--L--------x--x--x--0--|
----------------------|---------------------------|-----------3--3--3--0--|


                                 >                                          
  Q    E  E  E  Q    E     E  E  Q    E  E  E  E     Q    E  E  E  Q    E   
--3----3--3--L--3----3--|--3--3--3----L--3--3--3--|--3----3--3--L--3----3--|
--1----1--1--L--0----1--|--1--1--1----L--1--1--0--|--1----1--1--L--0----1--|
--0----0--0--L--0----2--|--2--2--2----L--2--2--0--|--0----0--0--L--0----2--|
--2----2--2--L--2----x--|--x--x--x----L--x--x--0--|--2----2--2--L--2----x--|
--3----3--3--L--3----3--|--3--3--3----L--3--3-----|--3----3--3--L--3----3--|
--0----0--0--L--0----1--|--1--1--1----L--1--1-----|--0----0--0--L--0----1--|


                                                           >                 
  E  E  Q    E  E  E  E     Q    E  E  E  Q    E     E  E  Q    E  E  E  E   
--3--3--3----L--3--3--3--|--3----3--3--L--3----3--|--3--3--3----L--3--3--3--|
--1--1--1----L--1--1--0--|--1----1--1--L--0----1--|--1--1--1----L--1--1--0--|
--2--2--2----L--2--2--0--|--0----0--0--L--0----2--|--2--2--2----L--2--2--0--|
--x--x--x----L--x--x--0--|--2----2--2--L--2----x--|--x--x--x----L--x--x--0--|
--3--3--3----L--3--3-----|--3----3--3--L--3----3--|--3--3--3----L--3--3-----|
--1--1--1----L--1--1-----|--0----0--0--L--0----1--|--1--1--1----L--1--1-----|


  Q    E  E  E  Q    E     E  E  Q    E  E  E  E     Q    E  E  E  Q    E   
--3----3--3--L--3----3--|--3--3--3----L--3--3--3--|--3----3--3--L--3----3--|
--1----1--1--L--0----1--|--1--1--1----L--1--1--0--|--1----1--1--L--0----1--|
--0----0--0--L--0----2--|--2--2--2----L--2--2--0--|--0----0--0--L--0----2--|
--2----2--2--L--2----x--|--x--x--x----L--x--x--0--|--2----2--2--L--2----x--|
--3----3--3--L--3----3--|--3--3--3----L--3--3-----|--3----3--3--L--3----3--|
--0----0--0--L--0----1--|--1--1--1----L--1--1-----|--0----0--0--L--0----1--|


        >                                                                   
  E  E  Q    E  E  E  E     Q    E  E  E  Q    E     Q    E  E  E  Q    E   
--3--3--3----L--3--3--3--|--3----3--3--L--3----3--|--3----3--3--L--3----3--|
--1--1--1----L--1--1--0--|--1----1--1--L--0----1--|--1----1--1--L--0----1--|
--2--2--2----L--2--2--0--|--0----0--0--L--0----2--|--0----0--0--L--0----2--|
--x--x--x----L--x--x--0--|--2----2--2--L--2----x--|--2----2--2--L--2----x--|
--3--3--3----L--3--3-----|--3----3--3--L--3----3--|--3----3--3--L--3----3--|
--1--1--1----L--1--1-----|--0----0--0--L--0----1--|--0----0--0--L--0----1--|


        >                                                                    
  E  E  Q    E  E  E  E     Q    E  E  E  Q    E     E  E  Q    E  E  E  E   
--3--3--3----L--3--3--3--|--3----3--3--L--3----3--|--3--3--3----L--3--3--3--|
--1--1--1----L--1--1--0--|--1----1--1--L--0----1--|--1--1--1----L--1--1--0--|
--2--2--2----L--2--2--0--|--0----0--0--L--0----2--|--2--2--2----L--2--2--0--|
--x--x--x----L--x--x--0--|--2----2--2--L--2----x--|--x--x--x----L--x--x--0--|
--3--3--3----L--3--3-----|--3----3--3--L--3----3--|--3--3--3----L--3--3-----|
--1--1--1----L--1--1-----|--0----0--0--L--0----1--|--1--1--1----L--1--1-----|


  W                   H        Q    Q       W                 
--3----------------|----------------0----|-------------------|
--1----------------|---------------------|--1----------------|
--0----------------|---------------------|-------------------|
--2----------------|-----------3---------|-------------------|
--3----------------|---------------------|-------------------|
--0----------------|---------------------|-------------------|


  W                   Q    Q     Q    Q       H.             Q     
-------------------|--0--------------------|----------------------|
--L----------------|-------0h----1---------|----------------------|
-------------------|-----------------------|----------------------|
-------------------|------------------3----|--L------------3g5----|
-------------------|-----------------------|----------------------|
-------------------|-----------------------|----------------------|


  Q      Q      Q     Q       H        E  E  E  E     Q    E  E  E  E  E  E   
---------------------------|-----------3--3--3-----|--0----0--0--0--0--0--x--|
---------------------------|-----------1--1--1--0--|--0----0--0--0--0--0--x--|
---------------------------|-----------0--0--0--0--|--2----2--2--2--2--2--x--|
---------------------------|-----------0--0--0--0--|--3----3--3--3--3--3--x--|
--5h----(5)s----3s----2----|--L--------x--x--x--0--|--3----3--3--3--3--3--x--|
---------------------------|-----------3--3--3--0--|--1----1--1--1--1--1--x--|


  Q    E  E  E  E  E  E     Q    E  E  E  E  E  E     Q    E  E  E  E  E  E   
--0----0--0--0--0--0--0--|--0----0--0--0--0--0--0--|--3----3--3--3--3--3--3--|
--1----1--1--1--1--1--1--|--1----1--1--1--1--1--1--|--0----0--0--0--0--0--0--|
--0----0--0--0--0--0--0--|--0----0--0--0--0--0--0--|--0----0--0--0--0--0--0--|
--2----2--2--2--2--2--2--|--2----2--2--2--2--2--2--|--0----0--0--0--0--0--0--|
--0----0--0--0--0--0--0--|--3----3--3--3--3--3--3--|--x----x--x--x--x--x--x--|
-------------------------|-------------------------|--3----3--3--3--3--3--3--|


  Q    E  E  E  E  E  E     Q    E  E  E  E  E  E     E  E  Q    E  E  E  E   
--3----3--3--3--3--3--3--|--3----3--3--3--3--3--3--|--3--3--3----3--3--3--3--|
--1----1--1--1--1--1--1--|--1----1--1--1--1--1--1--|--1--1--1----1--1--1--0--|
--0----0--0--0--0--0--0--|--2----2--2--2--2--2--2--|--0--0--0----0--0--0--0--|
--2----2--2--2--2--2--2--|--x----x--x--x--x--x--x--|--0--0--0----0--0--0--0--|
--3----3--3--3--3--3--3--|--3----3--3--3--3--3--3--|--x--x--x----x--x--x--x--|
--0----0--0--0--0--0--0--|--1----1--1--1--1--1--1--|--3--3--3----3--3--3--3--|


  E  E  E  E  E  E  E  E     E  E  Q    E  E  E  E     E  E  Q    E  E  E  E   
--L--3--3--3--3--3--x--x--|--0--0--0----0--0-----0--|--L--0--0----0--0--0--x--|
--L--0--0--0--0--0--x--x--|--1--1--1----1--1-----0--|--L--0--0----0--0--0--x--|
--L--0--0--0--0--0--x--x--|--2--2--2----2--2--x--2--|--L--2--2----2--2--2--x--|
--L--0--0--0--0--0--x--x--|--2--2--2----2--2--x--3--|--L--3--3----3--3--3--x--|
-----x--x--x--x--x--x--x--|--0--0--0----0--0--x--3--|--L--3--3----3--3--3--x--|
--L--3--3--3--3--3--x--x--|----------------------1--|--L--1--1----1--1--1--x--|


  Q    Q    E  E  E  E     E  E  Q    E  E  E  E     Q    Q    E  E  E  E   
--0----0----0--0--0--3--|--L--3--3----3--3--3--3--|--0----0----0--0--0--0--|
--1----1----1--1--1--0--|--L--0--0----0--0--0--0--|--1----1----1--1--1--1--|
--0----0----0--0--0--0--|--L--0--0----0--0--0--0--|--0----0----0--0--0--2--|
--2----2----2--2--2--0--|--L--0--0----0--0--0--0--|--2----2----2--2--2--x--|
--3----3----3--3--3--x--|-----x--x----x--x--x--x--|--3----3----3--3--3--3--|
---------------------3--|--L--3--3----3--3--3--3--|--0----0----0--0--0--1--|


  E  E  Q    E  E  E  E     E  E  Q    E  E  E  E     E  E  Q    E  E  E  E   
--L--0--0----0--0--0--x--|--3--3--3----3--3--3--3--|--L--3--3----3--3--3--3--|
--L--1--1----1--1--1--x--|--1--1--1----1--1--1--0--|--L--0--0----0--0--0--0--|
--L--2--2----2--2--2--x--|--0--0--0----0--0--0--0--|--L--0--0----0--0--0--0--|
--L--x--x----x--x--x--x--|--0--0--0----0--0--0--0--|--L--0--0----0--0--0--0--|
--L--3--3----3--3--3--x--|--x--x--x----x--x--x--x--|-----x--x----x--x--x--x--|
--L--1--1----1--1--1--x--|--3--3--3----3--3--3--3--|--L--3--3----3--3--3--3--|


  E  E  Q    E  E  E  E     E  E  Q    E  E  E  E     E  E  E  E  E  E  E  E   
-------------------------|-------------------------|--------------------------|
--1--1-------1--1--0--1--|--L--1--0----1--1--0--0--|--1--1--0--0--1--1--3--3--|
--0--0-------0--0--0--2--|--L--2--2----2--2--0--0--|--0--0--0--0--0--0--0--0--|
--2--2--2----2--2--0--3--|--L--3--3----3--3--0--0--|--0--0--0--0--0--0--0--0--|
--3--3--3----3--3--0--3--|--L--3--3----3--3--0--0--|--x--x--x--x--x--x--x--x--|
--0--0--0----0--0-----1--|--L--1--1----1--1--------|--3--3--3--3--3--3--3--3--|


  E  E  E  E  E  E  E  E     E  E  Q    E  E  E  E     E  E  Q    E  E  E  E   
--------------------------|-------------------------|-------------------------|
--1--1--0--0--1--1--3--3--|--1--1-------1--1--0--1--|--L--1--0----1--1--0--0--|
--0--0--0--0--0--0--0--0--|--0--0-------0--0--0--2--|--L--2--2----2--2--0--0--|
--0--0--0--0--0--0--0--0--|--2--2--2----2--2--0--3--|--L--3--3----3--3--0--0--|
--x--x--x--x--x--x--x--x--|--3--3--3----3--3--0--3--|--L--3--3----3--3--0--0--|
--3--3--3--3--3--3--3--3--|--0--0--0----0--0-----1--|--L--1--1----1--1--------|


  E  E  E  E  E  E  E  E     E  E  E  E  E  E  E  E     E  E  Q    E  E  E  E   
--------------------------|--------------------------|-------------------------|
--1--1--0--0--1--1--3--3--|--1--1--0--0--1--1--3--3--|--1--1-------1--1--0--1--|
--0--0--0--0--0--0--0--0--|--0--0--0--0--0--0--0--0--|--0--0-------0--0--0--2--|
--0--0--0--0--0--0--0--0--|--0--0--0--0--0--0--0--0--|--2--2--2----2--2--0--3--|
--x--x--x--x--x--x--x--x--|--x--x--x--x--x--x--x--x--|--3--3--3----3--3--0--3--|
--3--3--3--3--3--3--3--3--|--3--3--3--3--3--3--3--3--|--0--0--0----0--0-----1--|


  E  E  Q    E  E  E  E     E  E  E  E  E  E  E  E     E  E  E  E  E  E  E  E   
-------------------------|--------------------------|--------------------------|
--L--1--0----1--1--0--0--|--1--1--0--0--1--1--3--3--|--1--1--0--0--1--1--3--3--|
--L--2--2----2--2--0--0--|--0--0--0--0--0--0--0--0--|--0--0--0--0--0--0--0--0--|
--L--3--3----3--3--0--0--|--0--0--0--0--0--0--0--0--|--0--0--0--0--0--0--0--0--|
--L--3--3----3--3--0--0--|--x--x--x--x--x--x--x--x--|--x--x--x--x--x--x--x--x--|
--L--1--1----1--1--------|--3--3--3--3--3--3--3--3--|--3--3--3--3--3--3--3--3--|


  E  E  Q    E  E  E  E     E  E  Q    E  E  E  E     E  E  E  E  E  E  E  E   
-------------------------|-------------------------|--------------------------|
--1--1--0----1--1--0--1--|--L--1--0----1--1--0--0--|--1--1--0-----1--1--3--3--|
--0--0--0----0--0--0--2--|--L--2--2----2--2--0--0--|--0--0--0--0--0--0--0--0--|
--2--2--2----2--2--0--3--|--L--3--3----3--3--0--0--|--0--0--0--0--0--0--0--0--|
--3--3--3----3--3--0--3--|--L--3--3----3--3--0--0--|--x--x--x--x--x--x--x--x--|
--0--0--0----0--0-----1--|--L--1--1----1--1--------|--3--3--3--3--3--3--3--3--|


  W                   W                   W                 
-------------------|-------------------|-------------------|
--1----------------|--L----------------|--L----------------|
--0----------------|--L----------------|--L----------------|
--2----------------|--L----------------|--L----------------|
--3----------------|--L----------------|--L----------------|
-------------------|-------------------|-------------------|


  W                  
-------------------||
--L----------------||
--L----------------||
--L----------------||
--L----------------||
-------------------||




Duration Legend
---------------
W - whole
H - half
Q - quarter
E - 8th
S - 16th
T - 32nd
X - 64th
. - note dotted
|-n-|  - n-tuplets


Tablature Legend
----------------
L - tied note
x - dead note
g - grace note
(n) - ghost note
> - accentuded note
NH - natural harmonic
AH - artificial harmonic
TH - tapped harmonic
SH - semi harmonic
PH - pitch harmonic
h - hammer on
p - pull off
b - bend
br - bendRelease
pb - preBend
pbr - preBendRelease
brb - bendReleaseBend
\n/ - tremolo bar dip
\n - tremolo bar dive
-/n - tremolo bar Release up
/n\ - tremolo bar inverted dip
/n - tremolo bar return
-\n - tremolo bar Release down
S - shift slide
s - legato slide
/ -  slide into from below or out of upwards
\ -  slide into from above or out of downwards
~ - vibrato
W - wide vibrato
tr - trill
TP - tremolo picking
T - tapping
S - slap
P - pop
< - fade in
^ - brush up
v - brush down

  I've Got a Dark Alley, and a Bad Idea You Should Keep Your Mouth Shut       


                                                                    Fall Out Boy
Track 4



     E  H.           S S    H        Q.     E     H.           E  S S  
E||------------------3-3-|--3--------L------3--|--3------------3--3-3-|
B||------------------1-1-|--1--------L------1--|--1------------1--0-0-|
G||------------------0-0-|--0--------L------0--|--0------------0--0-0-|
D||------------------0-0-|--0--------L------0--|--0------------0--0-0-|
A||------------------x-x-|--x--------L------x--|--x------------x--x-x-|
E||------------------3-3-|--3--------L------3--|--3------------3--3-3-|


  H        Q.     E     H        E  E  E  S S    Q    Q    E  E  E  E   
--3--------L------3--|--3--------L--3--3--3-3-|--3------------3-----3--|
--0--------L------0--|--0--------L--0--0--1-1-|--1------------1-----1--|
--0--------L------0--|--0--------L--0--0--0-0-|--0------------0-----0--|
--0--------L------0--|--0--------L--0--0--0-0-|--0----0----0--0--0--0--|
--x---------------x--|--x-----------x--x--x-x-|--x----x----x--x--x--x--|
--3--------L------3--|--3--------L--3--3--3-3-|--3----3----3--3--3--3--|


  Q    E  E  E  E  E  E     Q    Q    E  E  E  E     E  E  E  E  E  E  E  E   
--3----3--3--3--3--3--3--|--3------------3-----3--|-----3--3--3--3--3--3--3--|
--1----1--1--1--1--0--0--|--0------------0-----0--|-----0--0--0--0--0--0--0--|
--0----0--0--0--0--0--0--|--0------------0-----0--|-----0--0--0--0--0--0--0--|
--0----0--0--0--0--0--0--|--0----0----0--0--0--0--|--0--0--0--0--0--0--0--0--|
--x----x--x--x--x--x--x--|--x----x----x--x--x--x--|--x--x--x--x--x--x--x--x--|
--3----3--3--3--3--3--3--|--3----3----3--3--3--3--|--3--3--3--3--3--3--3--3--|


                                 >                                          
  Q    E  E  E  Q    E     E  E  Q    E  E  E  E     Q    E  E  E  Q    E   
--3----3--3--L--3----3--|--3--3--3----L--3--3--3--|--3----3--3--L--3----3--|
--1----1--1--L--0----1--|--1--1--1----L--1--1--0--|--1----1--1--L--0----1--|
--0----0--0--L--0----2--|--2--2--2----L--2--2--0--|--0----0--0--L--0----2--|
--2----2--2--L--2----x--|--x--x--x----L--x--x--0--|--2----2--2--L--2----x--|
--3----3--3--L--3----3--|--3--3--3----L--3--3-----|--3----3--3--L--3----3--|
--0----0--0--L--0----1--|--1--1--1----L--1--1-----|--0----0--0--L--0----1--|


  E  E  Q    E  E  E  E     Q    E  E  E  Q    E     E  E  Q    E  E  E  E   
--3--3--3----L--3--3--3--|--3----3--3--L--3----3--|--3--3--3----L--3--3--3--|
--1--1--1----L--1--1--0--|--1----1--1--L--0----1--|--1--1--1----L--1--1--0--|
--2--2--2----L--2--2--0--|--0----0--0--L--0----2--|--2--2--2----L--2--2--0--|
--x--x--x----L--x--x--0--|--2----2--2--L--2----x--|--x--x--x-------x--x--0--|
--3--3--3----L--3--3-----|--3----3--3--L--3----3--|--3--3--3----L--3--3-----|
--1--1--1----L--1--1-----|--0----0--0--L--0----1--|--1--1--1----L--1--1-----|


  Q    Q    E  E  E  E     E  E  Q    E  E  E  E     Q    E  E  E  Q    E   
--3----3----3--3--3--3--|--L--3--3----3--3--3--3--|--3----3--3--L--3----3--|
--1----1----1--1--1--0--|--L--0--0----0--0--0--0--|--1----1--1--L--0----1--|
--0----0----0--0--0--0--|--L--0--0----0--0--0--0--|--0----0--0--L--0----2--|
--0----0----0--0--0--0--|--L--0--0----0--0--0--0--|--2----2--2--L--2----x--|
--x----x----x--x--x--x--|-----x--x----x--x--x--x--|--3----3--3--L--3----3--|
--3----3----3--3--3--3--|--L--3--3----3--3--3--3--|--0----0--0--L--0----1--|


        >                                                                    
  E  E  Q    E  E  E  E     Q    E  E  E  Q    E     E  E  Q    E  E  E  E   
--3--3--3----L--3--3--3--|--3----3--3--L--3----3--|--3--3--3----L--3--3--3--|
--1--1--1----L--1--1--0--|--1----1--1--L--0----1--|--1--1--1----L--1--1--0--|
--2--2--2----L--2--2--0--|--0----0--0--L--0----2--|--2--2--2----L--2--2--0--|
--x--x--x----L--x--x--0--|--2----2--2--L--2----x--|--x--x--x----L--x--x--0--|
--3--3--3----L--3--3-----|--3----3--3--L--3----3--|--3--3--3----L--3--3-----|
--1--1--1----L--1--1-----|--0----0--0--L--0----1--|--1--1--1----L--1--1-----|


  Q    E  E  E  Q    E     E  E  Q    E  E  E  E     Q    Q    E  E  E  E   
--3----3--3--L--3----3--|--3--3--3----L--3--3--3--|--3----3----3--3--3--3--|
--1----1--1--L--0----1--|--1--1--1----L--1--1--0--|--1----1----1--1--1--0--|
--0----0--0--L--0----2--|--2--2--2----L--2--2--0--|--0----0----0--0--0--0--|
--2----2--2--L--2----x--|--x--x--x-------x--x--0--|--0----0----0--0--0--0--|
--3----3--3--L--3----3--|--3--3--3----L--3--3-----|--x----x----x--x--x--x--|
--0----0--0--L--0----1--|--1--1--1----L--1--1-----|--3----3----3--3--3--3--|


  E  E  Q    E  E  E  E     H.            Q       H.            Q       
--L--3--3----3--3--3--3--|---------------------|-----------------------|
--L--0--0----0--0--0--0--|---------------------|-----------------------|
--L--0--0----0--0--0--0--|--0------------------|-----------------------|
--L--0--0----0--0--0--0--|--2h------------3----|--L------------(3)s----|
-----x--x----x--x--x--x--|--3------------------|-----------------------|
--L--3--3----3--3--3--3--|--0h------------1----|--L------------(1)s----|


  W                   W                                                         
-------------------|-------------------|-------------------|-------------------|
-------------------|-------------------|-------------------|-------------------|
-------------------|-------------------|-------------------|-------------------|
--5----------------|--L----------------|-------------------|-------------------|
-------------------|-------------------|-------------------|-------------------|
--3----------------|--L----------------|-------------------|-------------------|


-------------------|-------------------|-------------------|-------------------|
-------------------|-------------------|-------------------|-------------------|
-------------------|-------------------|-------------------|-------------------|
-------------------|-------------------|-------------------|-------------------|
-------------------|-------------------|-------------------|-------------------|
-------------------|-------------------|-------------------|-------------------|


              <                                    
  H        E  E  E  E     E  E  E  E  E  E  E  E   
--------------3--3--3--|--3--3--3--3--3-----------|
--------------1--1--1--|--1--1--1--1--1-----------|
--------------0--0--0--|--0--0--0--0--0--9--9--9--|
--------------0--0--0--|--0--0--0--0--0--x--x--x--|
--------------x--x--x--|--x--x--x--x--x--7--7--7--|
--------------3--3--3--|--3--3--3--3--3-----------|


   E   E   E  E   E    E  E  E     E  E   E  E   E    E  E  E   
--------------------------------|------------------------------|
--------------------------------|------------------------------|
--(9)--7s--5--5--(5)S--9--9--9--|--L--7s--5--5--(5)S--9--9--9--|
-------x---------------x--x--x--|-----x------x--------x--x--x--|
--(7)--5s--3--3--(3)S--7--7--7--|--L--5s--3--3--(3)S--7--7--7--|
--------------------------------|------------------------------|


  E  E   E  E   E    E  E  E     E  E   E  E   E    E  E  E   
------------------------------|------------------------------|
------------------------------|------------------------------|
--L--7s--5--5--(5)S--9--9--9--|--L--7s--5--5--(5)S--9--9--9--|
-----x------x--------x--x--x--|-----x------x--------x--x--x--|
--L--5s--3--3--(3)S--7--7--7--|--L--5s--3--3--(3)S--7--7--7--|
------------------------------|------------------------------|


   E   E   E  E   E    E  E  E     E  E   E  E   E    E  E  E   
--------------------------------|------------------------------|
--------------------------------|------------------------------|
--(9)--7s--5--5--(5)S--9--9--9--|--L--7s--5--5--(5)S--9--9--9--|
-------x---------------x--x--x--|-----x------x--------x--x--x--|
--(7)--5s--3--3--(3)S--7--7--7--|--L--5s--3--3--(3)S--7--7--7--|
--------------------------------|------------------------------|


  E  E  E  E  E  E  E    E      E   E   E   E   E   E  E  E   
----------------------------|--------------------------------|
----------------------------|--------------------------------|
--7--7--7--7--7--7--7S--12--|--12--12--12--12--12S--9--9--9--|
--x--x--x--x--x--x--x----x--|---x---x---x---x---x---x--x--x--|
--5--5--5--5--5--5--5S--10--|--10--10--10--10--10S--7--7--7--|
----------------------------|--------------------------------|


   E   E   E  E   E    E  E  E     E  E   E  E   E    E  E  E   
--------------------------------|------------------------------|
--------------------------------|------------------------------|
--(9)--7s--5--5--(5)S--9--9--9--|--L--7s--5--5--(5)S--9--9--9--|
-------x---------------x--x--x--|-----x------x--------x--x--x--|
--(7)--5s--3--3--(3)S--7--7--7--|--L--5s--3--3--(3)S--7--7--7--|
--------------------------------|------------------------------|


  E  E   E  E   E    E  E  E     E  E   E  E   E    E  E  E   
------------------------------|------------------------------|
------------------------------|------------------------------|
--L--7s--5--5--(5)S--9--9--9--|--L--7s--5--5--(5)S--9--9--9--|
-----x------x--------x--x--x--|-----x------x--------x--x--x--|
--L--5s--3--3--(3)S--7--7--7--|--L--5s--3--3--(3)S--7--7--7--|
------------------------------|------------------------------|


   E   E   E  E   E    E  E  E      E   E   E  E   E    E  E  E   
--------------------------------|--------------------------------|
--------------------------------|--------------------------------|
--(9)--7s--5--5--(5)S--9--9--9--|--(9)--7s--5--5--(5)S--9--9--9--|
-------x---------------x--x--x--|-------x---------------x--x--x--|
--(7)--5s--3--3--(3)S--7--7--7--|--(7)--5s--3--3--(3)S--7--7--7--|
--------------------------------|--------------------------------|


  Q    Q    E  E  E    E      E   E   E   E   E   E   E   E    
--------------------------|-----------------------------------|
--------------------------|-----------------------------------|
--7----7----7--7--7S--12--|--12--12--12--12--12--12--12--12\--|
--x----x----x--x--x----x--|---x---x---x---x---x---x---x---x---|
--5----5----5--5--5S--10--|--10--10--10--10--10--10--10--10\--|
--------------------------|-----------------------------------|


  H.            Q       H.            Q         W                 
---------------------|-----------------------|-------------------|
---------------------|-----------------------|-------------------|
--0------------------|-----------------------|-------------------|
--2h------------3----|--L------------(3)s----|--5----------------|
--3------------------|-----------------------|-------------------|
--0h------------1----|--L------------(1)s----|--3----------------|


  W                                                         
-------------------|-------------------|-------------------|
-------------------|-------------------|-------------------|
-------------------|-------------------|-------------------|
--L----------------|-------------------|-------------------|
-------------------|-------------------|-------------------|
--L----------------|-------------------|-------------------|


  Q    Q    E  E  E  E     E  E  E  E  E  E  E  E     Q    E  E  E  Q    E   
--3----3----3--3--3--3--|--3--3--3--3--3--3--3--3--|--3----3--3--L--3----3--|
--1----1----1--1--1--1--|--0--0--0--0--0--0--0--0--|--1----1--1--L--0----1--|
--0----0----0--0--0--0--|--0--0--0--0--0--0--0--0--|--0----0--0--L--0----2--|
--0----0----0--0--0--0--|--0--0--0--0--0--0--0--0--|--2----2--2--L--2----x--|
--x----x----x--x--x--x--|--x--x--x--x--x--x--x--x--|--3----3--3--L--3----3--|
--3----3----3--3--3--3--|--3--3--3--3--3--3--3--3--|--0----0--0--L--0----1--|


        >                                                                    
  E  E  Q    E  E  E  E     Q    E  E  E  Q    E     E  E  Q    E  E  E  E   
--3--3--3----L--3--3--3--|--3----3--3--L--3----3--|--3--3--3----L--3--3--3--|
--1--1--1----L--1--1--0--|--1----1--1--L--0----1--|--1--1--1----L--1--1--0--|
--2--2--2----L--2--2--0--|--0----0--0--L--0----2--|--2--2--2----L--2--2--0--|
--x--x--x----L--x--x--0--|--2----2--2--L--2----x--|--x--x--x----L--x--x--0--|
--3--3--3----L--3--3-----|--3----3--3--L--3----3--|--3--3--3----L--3--3-----|
--1--1--1----L--1--1-----|--0----0--0--L--0----1--|--1--1--1----L--1--1-----|


  Q    E  E  E  Q    E     E  E  Q    E  E  E  E     Q    Q    E  E  E  E   
--3----3--3--L--3----3--|--3--3--3----L--3--3--3--|--3----3----3--3--3--3--|
--1----1--1--L--0----1--|--1--1--1----L--1--1--0--|--1----1----1--1--1--0--|
--0----0--0--L--0----2--|--2--2--2----L--2--2--0--|--0----0----0--0--0--0--|
--2----2--2--L--2----x--|--x--x--x-------x--x--0--|--0----0----0--0--0--0--|
--3----3--3--L--3----3--|--3--3--3----L--3--3-----|--x----x----x--x--x--x--|
--0----0--0--L--0----1--|--1--1--1----L--1--1-----|--3----3----3--3--3--3--|


                                 >                                          
  Q    E  E  E  Q    E     E  E  Q    E  E  E  E     Q    E  E  E  Q    E   
--3----3--3--L--3----3--|--3--3--3----L--3--3--3--|--3----3--3--L--3----3--|
--1----1--1--L--0----1--|--1--1--1----L--1--1--0--|--1----1--1--L--0----1--|
--0----0--0--L--0----2--|--2--2--2----L--2--2--0--|--0----0--0--L--0----2--|
--2----2--2--L--2----x--|--x--x--x----L--x--x--0--|--2----2--2--L--2----x--|
--3----3--3--L--3----3--|--3--3--3----L--3--3-----|--3----3--3--L--3----3--|
--0----0--0--L--0----1--|--1--1--1----L--1--1-----|--0----0--0--L--0----1--|


  E  E  Q    E  E  E  E     Q    E  E  E  Q    E     E  E  Q    E  E  E  E   
--3--3--3----L--3--3--3--|--3----3--3--L--3----3--|--3--3--3----L--3--3--3--|
--1--1--1----L--1--1--0--|--1----1--1--L--0----1--|--1--1--1----L--1--1--0--|
--2--2--2----L--2--2--0--|--0----0--0--L--0----2--|--2--2--2----L--2--2--0--|
--x--x--x----L--x--x--0--|--2----2--2--L--2----x--|--x--x--x-------x--x--0--|
--3--3--3----L--3--3-----|--3----3--3--L--3----3--|--3--3--3----L--3--3-----|
--1--1--1----L--1--1-----|--0----0--0--L--0----1--|--1--1--1----L--1--1-----|


  Q    Q    E  E  E  E     H.            Q       H.            Q       
--3----3----3--3--3--3--|---------------------|-----------------------|
--1----1----1--1--1--0--|---------------------|-----------------------|
--0----0----0--0--0--0--|--0------------------|-----------------------|
--0----0----0--0--0--0--|--2h------------3----|--L------------(3)s----|
--x----x----x--x--x--x--|--3------------------|-----------------------|
--3----3----3--3--3--3--|--0h------------1----|--L------------(1)s----|


  W                   W                                                         
-------------------|-------------------|-------------------|-------------------|
-------------------|-------------------|-------------------|-------------------|
-------------------|-------------------|-------------------|-------------------|
--5----------------|--L----------------|-------------------|-------------------|
-------------------|-------------------|-------------------|-------------------|
--3----------------|--L----------------|-------------------|-------------------|


                                           E   E   E  E   E    E  E  E   
-------------------|-------------------|--------------------------------|
-------------------|-------------------|--------------------------------|
-------------------|-------------------|--(9)--7s--5--5--(5)S--9--9--9--|
-------------------|-------------------|-------x---------------x--x--x--|
-------------------|-------------------|--(7)--5s--3--3--(3)S--7--7--7--|
-------------------|-------------------|--------------------------------|


  E  E   E  E   E    E  E  E     E  E   E  E   E    E  E  E   
------------------------------|------------------------------|
------------------------------|------------------------------|
--L--7s--5--5--(5)S--9--9--9--|--L--7s--5--5--(5)S--9--9--9--|
-----x------x--------x--x--x--|-----x------x--------x--x--x--|
--L--5s--3--3--(3)S--7--7--7--|--L--5s--3--3--(3)S--7--7--7--|
------------------------------|------------------------------|


  E  E   E  E   E    E  E  E      E   E   E  E   E    E  E  E   
------------------------------|--------------------------------|
------------------------------|--------------------------------|
--L--7s--5--5--(5)S--9--9--9--|--(9)--7s--5--5--(5)S--9--9--9--|
-----x------x--------x--x--x--|-------x---------------x--x--x--|
--L--5s--3--3--(3)S--7--7--7--|--(7)--5s--3--3--(3)S--7--7--7--|
------------------------------|--------------------------------|


  E  E   E  E   E    E  E  E     Q    Q    E  E  E    E   
------------------------------|--------------------------|
------------------------------|--------------------------|
--L--7s--5--5--(5)S--9--9--9--|--7----7----7--7--7S--12--|
-----x------x--------x--x--x--|--x----x----x--x--x----x--|
--L--5s--3--3--(3)S--7--7--7--|--5----5----5--5--5S--10--|
------------------------------|--------------------------|


   E   E   E   E   E    E   E   E     E  E  E  E  E  E  E    E   
-----------------------------------|----------------------------|
-----------------------------------|----------------------------|
--12--12--12--12--12S--12--12S--9--|--7--7--7--7--7--7--7S--12--|
---x---x---x---x---x----x---x---x--|--x--x--x--x--x--x--x----x--|
--10--10--10--10--10S--10--10S--7--|--5--5--5--5--5--5--5S--10--|
-----------------------------------|----------------------------|


   E   E   E   E   E   E  E  E      E   E   E  E   E    E  E  E   
--------------------------------|--------------------------------|
--------------------------------|--------------------------------|
--12--12--12--12--12S--9--9--9--|--(9)--7s--5--5--(5)S--9--9--9--|
---x---x---x---x---x---x--x--x--|-------x---------------x--x--x--|
--10--10--10--10--10S--7--7--7--|--(7)--5s--3--3--(3)S--7--7--7--|
--------------------------------|--------------------------------|


  E  E   E  E   E    E  E  E     E  E   E  E   E    E  E  E   
------------------------------|------------------------------|
------------------------------|------------------------------|
--L--7s--5--5--(5)S--9--9--9--|--L--7s--5--5--(5)S--9--9--9--|
-----x------x--------x--x--x--|-----x------x--------x--x--x--|
--L--5s--3--3--(3)S--7--7--7--|--L--5s--3--3--(3)S--7--7--7--|
------------------------------|------------------------------|


                                                PM            
   E   E   E  E   E    E  E  E     E  E   E  E  E   E  E  E   
--------------------------------|----------------------------|
--------------------------------|----------------------------|
--(9)--7s--5--5--(5)S--9--9--9--|--L--7s--5--5------7--7--7--|
-------x------x--------x--x--x--|-----x------x--7---x--x--x--|
--(7)--5s--3--3--(3)S--7--7--7--|--L--5s--3--3--0S--5--5--5--|
--------------------------------|----------------------------|


  E  E  Q    E  E  E    E      E   E   E   E   E   E   E   E   
---------------------------|----------------------------------|
---------------------------|----------------------------------|
--7--7--7----7--7--7S--12--|--12--12--12--12--12--12--12S--9--|
--x--x--x----x--x--x----x--|---x---x---x---x---x---x---x---x--|
--5--5--5----5--5--5S--10--|--10--10--10--10--10--10--10S--7--|
---------------------------|----------------------------------|


  Q    E  E  E  E  E    E     E   E   Q     E   E   E    E   
---------------------------|--------------------------------|
---------------------------|--------------------------------|
--9----9--9--9--9--9S--10--|--L--10--10----10--10--10S--12--|
--x----x--x--x--x--x----x--|------x---x-----x---x---x----x--|
--7----7--7--7--7--7S---8--|--L---8---8-----8---8---8S--10--|
---------------------------|--------------------------------|


   Q     Q     E   E   E   E      E   E   E   E   E   E   E  E   
------------------------------|---------------------------------|
------------------------------|---------------------------------|
--12----12----12--12--12--12--|--12--12--12--12--12--12--12--0--|
---x-----x-----x---x---x---x--|---x---x---x---x---x---x---x--0--|
--10----10----10--10--10--10--|--10--10--10--10--10--10--10--0--|
------------------------------|---------------------------------|


  Q    E  E  E  E  E    E     E   E   Q     E   E   E    E   
---------------------------|--------------------------------|
---------------------------|--------------------------------|
--9----9--9--9--9--9S--10--|--L--10--10----10--10--10S--12--|
--x----x--x--x--x--x----x--|------x---x-----x---x---x----x--|
--7----7--7--7--7--7S---8--|--L---8---8-----8---8---8S--10--|
---------------------------|--------------------------------|


   Q     Q     E   E   E   E      E   E   E   E   E   E   E  E   
------------------------------|---------------------------------|
------------------------------|---------------------------------|
--12----12----12--12--12--12--|--12--12--12--12--12--12--12--0--|
---x-----x-----x---x---x---x--|---x---x---x---x---x---x---x--0--|
--10----10----10--10--10--10--|--10--10--10--10--10--10--10--0--|
------------------------------|---------------------------------|


  Q    E  E  E  E  E    E     E   E   Q     E   E   E    E   
---------------------------|--------------------------------|
---------------------------|--------------------------------|
--9----9--9--9--9--9S--10--|--L--10--10----10--10--10S--12--|
--x----x--x--x--x--x----x--|------x---x-----x---x---x----x--|
--7----7--7--7--7--7S---8--|--L---8---8-----8---8---8S--10--|
---------------------------|--------------------------------|


   Q     Q     E   E   E   E      E   E   E   E   E   E   E  E   
------------------------------|---------------------------------|
------------------------------|---------------------------------|
--12----12----12--12--12--12--|--12--12--12--12--12--12--12--0--|
---x-----x-----x---x---x---x--|---x---x---x---x---x---x---x--0--|
--10----10----10--10--10--10--|--10--10--10--10--10--10--10--0--|
------------------------------|---------------------------------|


  Q    E  E  E  E  E    E     E   E   Q     E   E   E    E   
---------------------------|--------------------------------|
---------------------------|--------------------------------|
--9----9--9--9--9--9S--10--|--L--10--10----10--10--10S--12--|
--x----x--x--x--x--x----x--|------x---x-----x---x---x----x--|
--7----7--7--7--7--7S---8--|--L---8---8-----8---8---8S--10--|
---------------------------|--------------------------------|


   >           >           >              >           >       >      
   E   E   E   E   E   E   E   E      E   E   E   E   E   E   Q      
----------------------------------|---------------------------------|
----------------------------------|---------------------------------|
--12--12--12--12--12--12--12--12--|--12--12--12--12--12--12--12S----|
---x---x---x---x---x---x---x---x--|---x---x---x---x---x---x---x-----|
--10--10--10--10--10--10--10--10--|--10--10--10--10--10--10--10S----|
----------------------------------|---------------------------------|


  W                   W                   W                  
-------------------|-------------------|-------------------||
-------------------|-------------------|-------------------||
--5----------------|--L----------------|--L----------------||
--5----------------|--L----------------|--L----------------||
--3----------------|--L----------------|--L----------------||
-------------------|-------------------|-------------------||




Duration Legend
---------------
W - whole
H - half
Q - quarter
E - 8th
S - 16th
T - 32nd
X - 64th
. - note dotted
|-n-|  - n-tuplets


Tablature Legend
----------------
L - tied note
x - dead note
g - grace note
(n) - ghost note
> - accentuded note
NH - natural harmonic
AH - artificial harmonic
TH - tapped harmonic
SH - semi harmonic
PH - pitch harmonic
h - hammer on
p - pull off
b - bend
br - bendRelease
pb - preBend
pbr - preBendRelease
brb - bendReleaseBend
\n/ - tremolo bar dip
\n - tremolo bar dive
-/n - tremolo bar Release up
/n\ - tremolo bar inverted dip
/n - tremolo bar return
-\n - tremolo bar Release down
S - shift slide
s - legato slide
/ -  slide into from below or out of upwards
\ -  slide into from above or out of downwards
~ - vibrato
W - wide vibrato
tr - trill
TP - tremolo picking
T - tapping
S - slap
P - pop
< - fade in
^ - brush up
v - brush down
   I've Got a Dark Alley, and a Bad Idea You Should Keep Your Mouth Shut       


                                                                    Fall Out Boy
Track 6



E||-------|-------|-------|-------|-------|-------|-------|-------|-------|
B||-------|-------|-------|-------|-------|-------|-------|-------|-------|
G||-------|-------|-------|-------|-------|-------|-------|-------|-------|
D||-------|-------|-------|-------|-------|-------|-------|-------|-------|
A||-------|-------|-------|-------|-------|-------|-------|-------|-------|
E||-------|-------|-------|-------|-------|-------|-------|-------|-------|


-------|-------|-------|-------|-------|-------|-------|-------|-------|-------|
-------|-------|-------|-------|-------|-------|-------|-------|-------|-------|
-------|-------|-------|-------|-------|-------|-------|-------|-------|-------|
-------|-------|-------|-------|-------|-------|-------|-------|-------|-------|
-------|-------|-------|-------|-------|-------|-------|-------|-------|-------|
-------|-------|-------|-------|-------|-------|-------|-------|-------|-------|


-------|-------|-------|-------|-------|-------|-------|-------|-------|-------|
-------|-------|-------|-------|-------|-------|-------|-------|-------|-------|
-------|-------|-------|-------|-------|-------|-------|-------|-------|-------|
-------|-------|-------|-------|-------|-------|-------|-------|-------|-------|
-------|-------|-------|-------|-------|-------|-------|-------|-------|-------|
-------|-------|-------|-------|-------|-------|-------|-------|-------|-------|


-------|-------|-------|-------|-------|-------|-------|-------|
-------|-------|-------|-------|-------|-------|-------|-------|
-------|-------|-------|-------|-------|-------|-------|-------|
-------|-------|-------|-------|-------|-------|-------|-------|
-------|-------|-------|-------|-------|-------|-------|-------|
-------|-------|-------|-------|-------|-------|-------|-------|


  Q    Q    Q    Q       Q    Q    Q    Q       Q    Q    Q    Q     
--0-------------------|--0-------------------|--0-------------------|
-------0----1---------|-------0----1---------|-------0----1---------|
-----------------0----|-----------------0----|-----------------0----|
----------------------|----------------------|----------------------|
----------------------|----------------------|----------------------|
----------------------|----------------------|----------------------|


  Q    Q    Q    Q       Q    Q    Q    Q       Q    Q    Q    Q     
--0-------------------|--0-------------------|--0-------------------|
-------0----1---------|-------0----1---------|-------0----1---------|
-----------------0----|-----------------0----|-----------------0----|
----------------------|----------------------|----------------------|
----------------------|----------------------|----------------------|
----------------------|----------------------|----------------------|


  Q    Q    Q    Q       Q    Q    Q    Q       Q    Q    Q    Q     
--3-------------------|--3-------------------|--0-------------------|
-------0----1----3----|-------0----1----3----|-------0----1---------|
----------------------|----------------------|-----------------0----|
----------------------|----------------------|----------------------|
----------------------|----------------------|----------------------|
----------------------|----------------------|----------------------|


  Q    Q    Q    Q       Q    Q    Q    Q       Q    Q    Q    Q     
--0-------------------|--0-------------------|--0-------------------|
-------0----1---------|-------0----1---------|-------0----1---------|
-----------------0----|-----------------0----|-----------------0----|
----------------------|----------------------|----------------------|
----------------------|----------------------|----------------------|
----------------------|----------------------|----------------------|


  Q    Q    Q    Q       Q    Q    Q    Q       Q    Q    Q    Q     
--0-------------------|--0-------------------|--3-------------------|
-------0----1---------|-------0----1---------|-------0----1----3----|
-----------------0----|-----------------0----|----------------------|
----------------------|----------------------|----------------------|
----------------------|----------------------|----------------------|
----------------------|----------------------|----------------------|


  Q    Q    Q    Q                                             
--3-------------------|-------|-------|-------|-------|-------|
-------0----1----3----|-------|-------|-------|-------|-------|
----------------------|-------|-------|-------|-------|-------|
----------------------|-------|-------|-------|-------|-------|
----------------------|-------|-------|-------|-------|-------|
----------------------|-------|-------|-------|-------|-------|


  Q    Q    E  E  E  E     E  E  E  E  E  E  E  E                           
-------3----3--3--3--3--|--3--3--3--3--3--3--3--3--|-----|-----|-----|-----|
-------1----1--1--1--0--|--0--0--0--0--0--0--0--0--|-----|-----|-----|-----|
-------0----0--0--0--0--|--0--0--0--0--0--0--0--0--|-----|-----|-----|-----|
-------0----0--0--0--0--|--0--0--0--0--0--0--0--0--|-----|-----|-----|-----|
-------x----x--x--x--x--|--x--x--x--x--x--x--x--x--|-----|-----|-----|-----|
-------3----3--3--3--3--|--3--3--3--3--3--3--3--3--|-----|-----|-----|-----|


-----|-----|-----|-----|-----|-----|-----|-----|-----|-----|-----|-----|-----|
-----|-----|-----|-----|-----|-----|-----|-----|-----|-----|-----|-----|-----|
-----|-----|-----|-----|-----|-----|-----|-----|-----|-----|-----|-----|-----|
-----|-----|-----|-----|-----|-----|-----|-----|-----|-----|-----|-----|-----|
-----|-----|-----|-----|-----|-----|-----|-----|-----|-----|-----|-----|-----|
-----|-----|-----|-----|-----|-----|-----|-----|-----|-----|-----|-----|-----|


                                            Q    Q    Q    Q     
-----|-----|-----|-----|-----|-----|-----|--0-------------------|
-----|-----|-----|-----|-----|-----|-----|-------0----1---------|
-----|-----|-----|-----|-----|-----|-----|-----------------0----|
-----|-----|-----|-----|-----|-----|-----|----------------------|
-----|-----|-----|-----|-----|-----|-----|----------------------|
-----|-----|-----|-----|-----|-----|-----|----------------------|


  Q    Q    Q    Q       Q    Q    Q    Q       Q    Q    Q    Q     
--0-------------------|--0-------------------|--0-------------------|
-------0----1---------|-------0----1---------|-------0----1---------|
-----------------0----|-----------------0----|-----------------0----|
----------------------|----------------------|----------------------|
----------------------|----------------------|----------------------|
----------------------|----------------------|----------------------|


  Q    Q    Q    Q       Q    Q    Q    Q       Q    Q    Q    Q     
--0-------------------|--0-------------------|--3-------------------|
-------0----1---------|-------0----1---------|-------0----1----3----|
-----------------0----|-----------------0----|----------------------|
----------------------|----------------------|----------------------|
----------------------|----------------------|----------------------|
----------------------|----------------------|----------------------|


  Q    Q    Q    Q       Q    Q    Q    Q       Q    Q    Q    Q     
--3-------------------|--0-------------------|--0-------------------|
-------0----1----3----|-------0----1---------|-------0----1---------|
----------------------|-----------------0----|-----------------0----|
----------------------|----------------------|----------------------|
----------------------|----------------------|----------------------|
----------------------|----------------------|----------------------|


  Q    Q    Q    Q       Q    Q    Q    Q       Q    Q    Q    Q     
--0-------------------|--0-------------------|--0-------------------|
-------0----1---------|-------0----1---------|-------0----1---------|
-----------------0----|-----------------0----|-----------------0----|
----------------------|----------------------|----------------------|
----------------------|----------------------|----------------------|
----------------------|----------------------|----------------------|


  Q    Q    Q    Q       Q    Q    Q    Q       Q    Q    Q    Q     
--0-------------------|--3-------------------|--3-------------------|
-------0----1---------|-------0----1----3----|-------0----1----3----|
-----------------0----|----------------------|----------------------|
----------------------|----------------------|----------------------|
----------------------|----------------------|----------------------|
----------------------|----------------------|----------------------|


  Q    Q    Q    Q       Q    Q    Q    Q       Q    Q    Q    Q     
--0-------------------|--0-------------------|--3-------------------|
-------0----1---------|-------0----1---------|-------0----1----3----|
-----------------0----|-----------------0----|----------------------|
----------------------|----------------------|----------------------|
----------------------|----------------------|----------------------|
----------------------|----------------------|----------------------|


  Q    Q    Q    E  E     Q    Q    Q    Q       Q    Q    Q    Q     
--3-----------------3--|--0-------------------|--0-------------------|
-------0----1----3-----|-------0----1---------|-------0----1---------|
-----------------------|-----------------0----|-----------------0----|
-----------------------|----------------------|----------------------|
-----------------------|----------------------|----------------------|
-----------------------|----------------------|----------------------|


  Q    Q    Q    Q       Q    Q    Q    E  E     Q    Q    Q    Q     
--3-------------------|--3-----------------3--|--0-------------------|
-------0----1----3----|-------0----1----3-----|-------0----1---------|
----------------------|-----------------------|-----------------0----|
----------------------|-----------------------|----------------------|
----------------------|-----------------------|----------------------|
----------------------|-----------------------|----------------------|


  Q    Q    Q    Q       Q    Q    Q    Q       Q    Q    Q    E  E   
--0-------------------|--3-------------------|--3-----------------3--|
-------0----1---------|-------0----1----3----|-------0----1----3-----|
-----------------0----|----------------------|-----------------------|
----------------------|----------------------|-----------------------|
----------------------|----------------------|-----------------------|
----------------------|----------------------|-----------------------|


  Q    Q    Q    Q       Q    Q    Q    Q       Q    Q    Q    Q     
--0-------------------|--0-------------------|--3-------------------|
-------0----1---------|-------0----1---------|-------0----1----3----|
-----------------0----|-----------------0----|----------------------|
----------------------|----------------------|----------------------|
----------------------|----------------------|----------------------|
----------------------|----------------------|----------------------|


  Q    Q    Q    Q       W                   W                 
--3-------------------|-------------------|-------------------|
-------0----1----3----|--1----------------|--L----------------|
----------------------|--0----------------|--L----------------|
----------------------|--2----------------|--L----------------|
----------------------|--3----------------|--L----------------|
----------------------|-------------------|-------------------|


  W                  
-------------------||
--L----------------||
--L----------------||
--L----------------||
--L----------------||
-------------------||




Duration Legend
---------------
W - whole
H - half
Q - quarter
E - 8th
S - 16th
T - 32nd
X - 64th
. - note dotted
|-n-|  - n-tuplets


Tablature Legend
----------------
L - tied note
x - dead note
g - grace note
(n) - ghost note
> - accentuded note
NH - natural harmonic
AH - artificial harmonic
TH - tapped harmonic
SH - semi harmonic
PH - pitch harmonic
h - hammer on
p - pull off
b - bend
br - bendRelease
pb - preBend
pbr - preBendRelease
brb - bendReleaseBend
\n/ - tremolo bar dip
\n - tremolo bar dive
-/n - tremolo bar Release up
/n\ - tremolo bar inverted dip
/n - tremolo bar return
-\n - tremolo bar Release down
S - shift slide
s - legato slide
/ -  slide into from below or out of upwards
\ -  slide into from above or out of downwards
~ - vibrato
W - wide vibrato
tr - trill
TP - tremolo picking
T - tapping
S - slap
P - pop
< - fade in
^ - brush up
v - brush down

            
            
Suggest correction
Creating personal tab
Creating personal tab
You can edit any tab online and save it as your Personal.

You can edit, replace or remove any tab part or add personal notes – all changes will be seen only by you.

Personal tabs can be accessed anytime from any device, even offline.
Learn more »
Give kudos to tab author, rate the tab!
1 2 3 4 5
comments
print report bad tab
1 comment total.
0 reply
Jimmyiscool 20 Jun 25, 2007 09:35 AM

Hmmm, I wonder if someone owns the FOB songbook for FUCT that is easily purchased at guitar center and is trying to pass it off as there own. Because this is almost exactly like it....

guest
You may want to rate the tab now too:
select rating
Wanna post a correction for this tab? Suggest correction