Oops, an error
Loading. Please wait.

Ive Got All This Ringing In My Ears And None On My Fingers bass

version 1
version 1

Whole song

Interactive

1,763 views 1 this week
12 commentsread comments
1 2 3 4 5
x 6
add to favorites
×
Save as Personal and add changes to this tab that will be seen only by you. Learn more ›
×
You can save this tab as Personal to edit and correct it or add notes. All changes will be seen only by you. Learn more »
launch autoscroll
font size
0
reset
guitar tuner
edit
Autoscroll
slow
fast
+/-
esc
set tempo
stop
Author
Difficulty
Artist: Fall Out Boy
Song: I've Got All This Ringing In My Ears And None On My Fingers
Album: Infinity On High
Date: 2/1/07
Tabbed: stke(killerewok22@hotmail.com)
Bassist: Pete Wentz

Tuning: Standard

Tempo = 103

Intro
G|---------------------------------------------------------------------------|
D|-----------------------------------------6-6-6\----------------------------|
A|---------------------------------------------------------------------------|
E|-/11---------------4>>--2--1>>--0>-2>-4>--4-4------------------------------|

1st Verse
G|------------------|--------------------------------------------------------|
D|-6--6--6--6--6--6-|----------------------6--6------------------------------|
A|---6--6--6--6--6--|------------------------6--6----------------------------|
E|------------------|--4>>--2--1>>--0>-2>--------4---2--2--2--2--------------|

Chorus
G|---------------------------------------------------------------------------|
D|------------------------------6---4----------------------------------------|
A|-22222222-------00-22222-2---6-6-4-4-66666666-------00---------------------|
E|----------002233--------2-2-4---2-------------002233-----------------------|

G|---------------------------------------------------------------------------|
D|------------------------------6---4----------------------------------------|
A|-22222222-------00-22222-2---6-6-4-4-66666666-77777777---------------------|
E|----------002233--------2-2-4---2------------------------------------------|

Bridge
G|---------------------------------------------------------------------------|
D|---------------------------------------------------------------------------|
A|-------------------44444444-44444444-------------------4--4--4--4-4-4-6----|
E|-22222222-44444444-------------------22222222-44444444---------------------|

2nd Verse: repeat 1st Verse without lead-in
Chorus: for ending, instead of 7's, do 0's on E-string
Bridge: don't play the 6; play a 4

Final Chorus:
G|----------|
D|----------|
A|----------|
E|-0-/-11-\-|

G|---------------------------------------------------------------------------|
D|------------------------------6---4----------------------------------------|
A|-22222222-------00-22222-2---6-6-4-4-66666666-------00---------------------|
E|----------002233--------2-2-4---2-------------002233-----------------------|

G|---------------------------------------------------------------------------|
D|---------------------------------------------------------------------------|
A|-22222222-------00-22222222-------00-22222222-------00-22222666------------|
E|----------002233------------002233------------002233------------0----------|

I felt like tabbing it.

            
            
Suggest correction
Creating personal tab
Creating personal tab
You can edit any tab online and save it as your Personal.

You can edit, replace or remove any tab part or add personal notes – all changes will be seen only by you.

Personal tabs can be accessed anytime from any device, even offline.
Learn more »
comments
print report bad tab
12 comments total. Showing first comments.
0 reply
ju_ong_can 10 Feb 05, 2007 12:26 AM

I want another ver. of this song!!!!!!!!!It's hard to understnd this senseless tab!!!!!!!

0 reply
stke 2,645 Feb 05, 2007 04:25 PM

What is wrong with you???? Listen to the song itself and hear the bass before coming here, then read the tab while the song plays. Also, > usually means play 8 times and is used in a LOT of bass tabs.
*slaps forehead*

-1 reply
dongdingsss 10 Feb 05, 2007 11:55 PM

yah ju_ong_can,it's hard to understand this very idiot tab!!Tune it to drop d u idiot...

guest
You may want to rate the tab now too:
select rating
Wanna post a correction for this tab? Suggest correction