Oops, an error
Loading. Please wait.

Jet Pack Blues solo tab

2,151 views 18 this week
1 commentread comment
1 2 3 4 5
x 7
add to favorites
×
Save as Personal and add changes to this tab that will be seen only by you. Learn more ›
×
You can save this tab as Personal to edit and correct it or add notes. All changes will be seen only by you. Learn more »
launch autoscroll
font size
0
reset
how to read this tab
guitar tuner
edit
Autoscroll
slow
fast
+/-
esc
set tempo
stop
Author
Difficulty
-------------------------------------------------------------------------------
                             Jet Pack Blues - Fall Out Boy
-------------------------------------------------------------------------------
Tabbed by: sickasfrick
E-mail: plasma425@gmail.com

Tuning: EADGBe

e|---------------------------------------------------------------------------|
B|---------------------12h13-12----------------------------------------------|
G|---------12-14~----------------14-12---------------------------------------|
D|---12-14-------------14--------------14-12~--14----------------------------|
A|------------------------------------------------15-12----------------------|
E|------------------------------------------------------15~------------------|

                                       OR

e|---------------7h8-7-------------------------------------------------------|
B|-------8-10~----------10-8-------------------------------------------------|
G|---7-9---------9-----------9-7~---9----------------------------------------|
D|------------------------------------10-------------------------------------|
A|---------------------------------------12-10~------------------------------|
E|---------------------------------------------------------------------------|

hitting the two strings at the same time (the 14 and 12 in the first one and the 9 and the 7 in the second one)
is totally optional but i think it sounds really cool

enjoy!! sorry if it's bad!!

************************************

| /   slide up
| \   slide down
| h   hammer-on
| p   pull-off
| ~   vibrato
| +   harmonic
| x   Mute note
| b   Bend
| pb  Pre-bend
| br  Bend release
| pbr Pre-bend release
| brb Bend release bend

************************************
Suggest correction
Creating personal tab
Creating personal tab
You can edit any tab online and save it as your Personal.

You can edit, replace or remove any tab part or add personal notes – all changes will be seen only by you.

Personal tabs can be accessed anytime from any device, even offline.
Learn more »
comments
print report bad tab
1 comment total.
+1 reply
miltroon 10 Jan 15, 2016 09:12 PM

sounds good!!

guest
You may want to rate the tab now too:
select rating
Wanna post a correction for this tab? Suggest correction