Oops, an error
Loading. Please wait.

Me And You Tab

9,120 views 6 this week
1 commentread comment
1 2 3 4 5
2 more votes to show rating
add to favorites
launch autoscroll
font size
0
reset
how to read this tab
guitar tuner
Autoscroll
slow
fast
+/-
esc
set tempo
stop
Help us to improve Ultimate-Guitar.com Take our survey!
×
Author
Difficulty
intermediate
me and you* - *FALLOUTBOY*
*I think this tab is not perfect, but the sound is pretty close and I think it will work 
I tried my best to make it good *
________________________________________________________________________
Last year's wishes,
Are this year's apologies.
Every last time I come home,

/--6-6--x-x------}------6-6---x-x--x-x-x-x--------/
/--6-6--x-x------}------6-6---1-1--2-2-2-2--------/
/--6-6--6-6------}------6-6---2-2--3-3-3-3--------/
/--8-8--6-6------}--2x--8-8---3-3--4-4-4-4--------/
/--8-8--4-4------}------8-8---3-3--4-4-4-4--------/
/--6-6--x-x------}------6-6---x-x--x-x-x-x--------/


I take my last chance,
To burn a bridge or two.
I only keep myself this sick in the head,
'Cause I know how the words get you
Guitar 1:

/--6-6--x-x------}--------6-6-----x-x----x-x-x-x------/
/--6-6--x-x------}--------6-6-----1-1----2-2-2-2------/
/--6-6--6-6------}--------6-6-----2-2----3-3-3-3------/
/--8-8--6-6------}--------8-8-----3-3----4-4-4-4------/
/--8-8--4-4------}--2x----8-8-----3-3----4-4-4-4------/
/--6-6--x-x------}--------6-6-----x-x----x-x-x-x------/

Guitar 2:
/------6-6-6-6-6-------6-6-6-6-6------6-6-6-6-6---------------/
/------6-6-6-6-6-------6-6-6-6-6------6-6-6-6-6---------------/
/------6-6-6-6-6-------6-6-6-6-6------6-6-6-6-6---------------/
/------x-x-x-x-x-------x-x-x-x-x------x-x-x-x-x---------------/
/------x-x-x-x-x-------x-x-x-x-x------x-x-x-x-x---------------/
/------x-x-x-x-x-------x-x-x-x-x------x-x-x-x-x---------------/

We're the new face of failure.
Prettier and younger but not any better off.

Guitar 1
/----x--x--x--x----------1--1--1--1----}----------/
/----1--1--1--1----------2--2--2--2----}----------/
/----2--2--2--1----------3--3--3--3----}----------/
/----3--3--3--3----------3--3--3--3----}----------/
/----3--3--3--3----------x--x--x--x----}—2x-------/
/----x--x--x--x----------x--x--x--x----}----------/
Guitar 2

/-----x--x--------------x---x----------/ this goes after the word "failure"
/----11-11--------------11-11----------/
/----10-10-----8--------10-10----------/
/----11-11----10--------11-11----------/
/-----x--x-----------------------------/
/-----x--x--------------x--x-----------/


Bulletproof loneliness,
At best.
At best.

/--x-x-x-x----x-x-x-x----x-x-x-x-x-x-x-x----x-x-x-x----x-x-x-x---/
/--4-4-4-4----x-x-x-x----x-x-x-x-x-x-x-x----x-x-x-x----x-x-x-x---/
/--5-5-5-5----6-6-6-6----x-x-x-x-x-x-x-x----x-x-x-x----x-x-x-x---/
/--6-6-6-6----6-6-6-6----4-4-4-4-4-4-4-4-PM-3-3-3-3-PM-6-6-6-6---/
/--6-6-6-6----4-4-4-4----4-4-4-4-4-4-4-4----3-3-3-3----6-6-6-6---/
/--x-x-x-x----x-x-x-x----2-2-2-2-2-2-2-2----1-1-1-1----4-4-4-4---/

Chorus : Guitar 1 & 2 :
Me and you,
Setting in a honeymoon.
If I woke up next to you.
(If I woke up next to you.)

/--xxxxxxxx----xxxxxxxx------xxxxxxxxxxxxxxxx--------------/
/--xxxxxxxx----xxxxxxxx------xxxxxxxxxxxxxxxx--------------/
/--66666666----33333333------xxxxxxxxxxxxxxxx--------------/
/--66666666----33333333------4444444444444444--------------/
/--44444444----11111111------4444444444444444--------------/
/--xxxxxxxx----xxxxxxxx------2222222222222222--------------/

Me and you,
Setting in a honeymoon.
If I woke up next to you.
(If I woke up next to you.)
/--xxxxxxxx------xxxxxxxx-------xxxxxxxx------x-----------/
/--xxxxxxxx------xxxxxxxx-------xxxxxxxx------x-----------/
/--33333333------66666666-------xxxxxxxx------x-----------/
/--33333333------66666666-------44444444------6-----------/
/--11111111------44444444-------44444444------6-----------/
/--xxxxxxxx------xxxxxxxx-------22222222------4-----------/
Guitar 2 ( this goes to the last part of the chorus )

/-----------------------------------------------------------------/
/------14--13--11-------------------------------------------------/
/------------------13--11-----------------------------------------/
/---------------------------15--13--15----------------------------/
/-----------------------------------------------------------------/
/-----------------------------------------------------------------/


Collect the bad habits,
That you couldn't bare to keep,
Out of the woods but I love,

/--6-6--x-x------}--------6-6-----x-x----x-x-x-x------/
/--6-6--x-x------}--------6-6-----1-1----2-2-2-2------/
/--6-6--6-6------}--------6-6-----2-2----3-3-3-3------/
/--8-8--6-6------}--------8-8-----3-3----4-4-4-4------/
/--8-8--4-4------}-2x-----8-8-----3-3----4-4-4-4------/
/--6-6--x-x------}--------6-6-----x-x----x-x-x-x------/

d to lay beneath.
Kiss teeth stained red,
From a sour bottle, baby girl,
With eyes the size of baby worlds.

Guitar 1:

/--6-6--x-x------}--------6-6-----x-x----x-x-x-x------/
/--6-6--x-x------}--------6-6-----1-1----2-2-2-2------/
/--6-6--6-6------}--------6-6-----2-2----3-3-3-3------/
/--8-8--6-6------}--------8-8-----3-3----4-4-4-4------/
/--8-8--4-4------}-2x-----8-8-----3-3----4-4-4-4------/
/--6-6--x-x------}--------6-6-----x-x----x-x-x-x------/

Guitar 2:
/------6-6-6-6-6-------6-6-6-6-6------6-6-6-6-6---------------/
/------6-6-6-6-6-------6-6-6-6-6------6-6-6-6-6---------------/
/------6-6-6-6-6-------6-6-6-6-6------6-6-6-6-6---------------/
/------x-x-x-x-x-------x-x-x-x-x------x-x-x-x-x---------------/
/------x-x-x-x-x-------x-x-x-x-x------x-x-x-x-x---------------/
/------x-x-x-x-x-------x-x-x-x-x------x-x-x-x-x---------------/


We're the new face of failure.
Prettier and younger but not any better off.

Guitar 1
/----x--x--x--x----------1--1--1--1----}----------/
/----1--1--1--1----------2--2--2--2----}----------/
/----2--2--2--1----------3--3--3--3----}----------/
/----3--3--3--3----------3--3--3--3----}----------/
/----3--3--3--3----------x--x--x--x----}—2x-------/
/----x--x--x--x----------x--x--x--x----}----------/
Guitar 2

/-----x--x---------------x--x------------/this goes after the word "failure"
/----11-11--------------11-11------------/
/----10-10-----8--------10-10------------/
/----11-11----10--------11-11------------/
/-----x--x---------------x--x------------/
/-----x--x---------------x--x------------/


Bulletproof loneliness,
At best.
At best.

/--x-x-x-x----x-x-x-x----x-x-x-x-x-x-x-x----x-x-x-x----x-x-x-x---/
/--4-4-4-4----x-x-x-x----x-x-x-x-x-x-x-x----x-x-x-x----x-x-x-x---/
/--5-5-5-5----6-6-6-6----x-x-x-x-x-x-x-x----x-x-x-x----x-x-x-x---/
/--6-6-6-6----6-6-6-6----4-4-4-4-4-4-4-4 PM-3-3-3-3-PM-6-6-6-6---/
/--6-6-6-6----4-4-4-4----4-4-4-4-4-4-4-4----3-3-3-3----6-6-6-6---/
/--x-x-x-x----x-x-x-x----2-2-2-2-2-2-2-2----1-1-1-1----4-4-4-4---/

Chorus :2 Guitar 1:
Me and you,
Setting in a honeymoon.
If I woke up next to you.
(If I woke up next to you.)

/--xxxxxxxx----xxxxxxxx------xxxxxxxxxxxxxxxx--------------/
/--xxxxxxxx----xxxxxxxx------xxxxxxxxxxxxxxxx--------------/
/--66666666----33333333------xxxxxxxxxxxxxxxx--------------/
/--66666666----33333333------4444444444444444--------------/
/--44444444----11111111------4444444444444444--------------/
/--xxxxxxxx----xxxxxxxx------2222222222222222--------------/

Guitar 2 ( this time it goes with the 1st line of the chorus )

/-----------------------------------------------------------------/
/------14--13--11-------------------------------------------------/
/------------------13--11-----------------------------------------/
/---------------------------15--13--15----------------------------/
/-----------------------------------------------------------------/
/-----------------------------------------------------------------/

Me and you,
Setting in a honeymoon.
If I woke up next to you.
(If I woke up next to you.)
/--xxxxxxxx------xxxxxxxx-------xxxxxxxx------x-----------/
/--xxxxxxxx------xxxxxxxx-------xxxxxxxx------x-----------/
/--33333333------66666666-------xxxxxxxx------x-----------/
/--33333333------66666666-------44444444------6-----------/
/--11111111------44444444-------44444444------6-----------/
/--xxxxxxxx------xxxxxxxx-------22222222------4-----------/
Guitar 2 ( this time it goes with the 1st line of the chorus )
/-----------------------------------------------------------------/
/------14--13--11-------------------------------------------------/
/------------------13--11-----------------------------------------/
/---------------------------15--13--15----------------------------/
/-----------------------------------------------------------------/
/-----------------------------------------------------------------/

Note: this riff above is also played in the last stanza of the chorus before the bridge.
***The 2nd chorus will be repeated twice*****


Bridge:

The best,
Way to make it through,
With hearts and wrists intact

/--xxxxxxxx-----xxxxxxxx----xxxxxxxx----xxxxxxxx-------/
/--xxxxxxxx-----xxxxxxxx----xxxxxxxx----xxxxxxxx-------/
/--33333333-----xxxxxxxx----66666666----xxxxxxxx-------/
/--33333333-----44444444----66666666----33333333-------/
/--11111111-----44444444----44444444----33333333-------/
/--xxxxxxxx-----22222222----xxxxxxxx----11111111-------/

Is to realize,
Two out of three ain't bad.
Ain't bad.
                                     PM PM PM
/---xxxxxxxx----xxxxxxxx-----xxxxxxxxxxxxxxxx-----------/
/---xxxxxxxx----xxxxxxxx-----xxxxxxxxxxxxxxxx-----------/
/---33333333----xxxxxxxx-----xxxxxxxxxxxxxxxx-----------/
/---33333333----44444444-----6666666666666666-----------/
/---11111111----44444444-----6666666666666666-----------/
/---xxxxxxxx----22222222-----4444444444444444-----------/


Last chorus:

Me and you,
Setting in a honeymoon.
If I woke up next to you.
(If I woke up next to you.)

/---x-}--------------xxxxxxxxxxxxxxxx------------/
/---x-}--------------xxxxxxxxxxxxxxxx------------/
/---6-}-HOLD---------xxxxxxxxxxxxxxxx------------/
/---6-}--------------4444444444444444------------/
/---4-}--------------4444444444444444------------/
/---x-}--------------2222222222222222------------/


Me And you,
(Honeymoon.)
Setting in a honeymoon.
(A honeymoon.)

/---xxxxxxxx----xxxxxxxx-----xxxxxxxxxxxxxxxx---------------/
/---xxxxxxxx----xxxxxxxx-----xxxxxxxxxxxxxxxx---------------/
/---33333333----66666666-----xxxxxxxxxxxxxxxx---------------/
/---33333333----66666666-----4444444444444444---------------/
/---11111111----44444444-----4444444444444444---------------/
/---xxxxxxxx----xxxxxxxx-----2222222222222222---------------/

Me and you,
Setting in a honeymoon.
If I woke up next to you.
(If I woke up next to you.)

/---xxxxxxxx----xxxxxxxx----xxxxxxxx----------/
/---xxxxxxxx----xxxxxxxx----xxxxxxxx----------/
/---66666666----33333333----xxxxxxxx----------/
/---66666666----33333333----44444444----------/
/---44444444----11111111----44444444----------/
/---xxxxxxxx----xxxxxxxx----22222222----------/
Me and you,
Setting in a honeymoon.
If I woke up next to you.
(Honeymoon.)

/---xxxxxxxx-----xxxxxxxx-----xxxxxxxxxx--------------------/
/---xxxxxxxx-----xxxxxxxx-----xxxxxxxxxx--------------------/
/---33333333-----66666666-----xxxxxxxxxx--------------------/
/---33333333-----66666666-----4444444444------HOLD----------/
/---11111111-----44444444-----4444444444--------------------/
/---xxxxxxxx-----xxxxxxxx-----2222222222--------------------/

Guitar 2 (This riff goes in many parts of the last chorus after the bridge )
                ( It basically goes always with the 1st line or the last )
/-----------------------------------------------------------------/
/------14--13--11-------------------------------------------------/
/------------------13--11-----------------------------------------/
/---------------------------15--13--15----------------------------/
/-----------------------------------------------------------------/
/-----------------------------------------------------------------/

For comments/suggestions/corrections.
*paolo_deguia17@yahoo.com*
Suggest correction
Give kudos to tab author, rate the tab!
1 2 3 4 5
comments
print report bad tab
1 comment total.
0 reply
vartanspartan 30 Aug 13, 2008 12:25 PM

this song is called "I'm Like A Lawyer With The Way I'm Always Trying To Get You Off"

guest
You may want to rate the tab now too:
select rating
Wanna post a correction for this tab? Suggest correction