Oops, an error
Loading. Please wait.

My Heart Is The Worst Kind Of Weapon Acoustic tab

version 5
version 5

Whole song

Interactive

160 views 6 this week
no commentswrite comment
1 2 3 4 5
3 more votes to show rating
add to favorites
×
Save as Personal and add changes to this tab that will be seen only by you. Learn more ›
×
You can save this tab as Personal to edit and correct it or add notes. All changes will be seen only by you. Learn more »
launch autoscroll
font size
0
reset
how to read this tab
guitar tuner
edit
Autoscroll
slow
fast
+/-
esc
set tempo
stop
Author
Difficulty
-------------------------------------------------------------------------------
                MY HEART IS THE WORST KIND OF WEAPON - fall out boy
-------------------------------------------------------------------------------
Tabbed by:flora
E-mail:flopick123@gmail.com

Tuning:standard

e|--0--0----0--0--0-----3--3----3--3--3-----0--0-----0--0--0-----8---8------8---8---8--------|
B|--0--0----0--0--0-----3--3----3--3--3-----0--0-----0--0--0-----8---8------8---8---8--------| x4
G|--5--5-h--5--5--5--h--5--5--h-5--5--5--h--9--9--h--9--9--9--h--10--10--h--10--10--10-------|
D|--5--5-i--5--5--5--i--5--5--i-5--5--5--i--9--9--i--9--9--9--i--10--10--i--10--10--10-------|
A|--0--0-t--0--0--0--t--3--3--t-3--3--3--t--7--7--t--7--7--7--t--8---8---t--8---8---8--------|
E|--x--x----x--x--x-----3--3----3--3--3-----0--0-----0--0--0-----8---8------8---8---8--------|
    D  U    U  D  U     D  U    U  D  U     D  U     U  D  U     D   U      U   D   U

e|--0--0--0--0--0--3--3--3--3--3--0--0--0--0--0--8---8---8---8---8--------|
B|--0--0--0--0--0--3--3--3--3--3--0--0--0--0--0--8---8---8---8---8--------| x2
G|--5--5--5--5--5--5--5--5--5--5--9--9--9--9--9--10--10--10--10--10-------|    
D|--5--5--5--5--5--5--5--5--5--5--9--9--9--9--9--10--10--10--10--10-------|
A|--0--0--0--0--0--3--3--3--3--3--7--7--7--7--7--8---8---8---8---8--------|
E|--x--x--x--x--x--3--3--3--3--3--0--0--0--0--0--8---8---8---8---8--------|
            DDUUD strumming

e|--0--0----0--0--0-----3--3----3--3--3-----0--0-----0--0--0-----8---8------8---8---8--------|
B|--0--0----0--0--0-----3--3----3--3--3-----0--0-----0--0--0-----8---8------8---8---8--------| x4
G|--5--5-h--5--5--5--h--5--5--h-5--5--5--h--9--9--h--9--9--9--h--10--10--h--10--10--10-------|
D|--5--5-i--5--5--5--i--5--5--i-5--5--5--i--9--9--i--9--9--9--i--10--10--i--10--10--10-------|
A|--0--0-t--0--0--0--t--3--3--t-3--3--3--t--7--7--t--7--7--7--t--8---8---t--8---8---8--------|
E|--x--x----x--x--x-----3--3----3--3--3-----0--0-----0--0--0-----8---8------8---8---8--------|
    D  U    U  D  U     D  U    U  D  U     D  U     U  D  U     D   U      U   D   U

  The chorus is done with open chords:

(same DDUUD strumming pattern as woahhhs)


(Am)
Take your taste back
               (C)
peel back your skin
            (F)
and try to forget how it feels inside
                      (C)
you should try saying no once in a while

oh once in a while

(Am)
Take your taste back
               (C)
peel back your skin
            (F)
and try to forget how it feels inside
                      (C)
you should try saying no once in a while
(G)
oh once in a while

e|--0--0----0--0--0-----3--3----3--3--3-----0--0-----0--0--0-----8---8------8---8---8--------|
B|--0--0----0--0--0-----3--3----3--3--3-----0--0-----0--0--0-----8---8------8---8---8--------| x4
G|--5--5-h--5--5--5--h--5--5--h-5--5--5--h--9--9--h--9--9--9--h--10--10--h--10--10--10-------|
D|--5--5-i--5--5--5--i--5--5--i-5--5--5--i--9--9--i--9--9--9--i--10--10--i--10--10--10-------|
A|--0--0-t--0--0--0--t--3--3--t-3--3--3--t--7--7--t--7--7--7--t--8---8---t--8---8---8--------|
E|--x--x----x--x--x-----3--3----3--3--3-----0--0-----0--0--0-----8---8------8---8---8--------|
    D  U    U  D  U     D  U    U  D  U     D  U     U  D  U     D   U      U   D   U

(Am)
Take your taste back
               (C)
peel back your skin
            (F)
and try to forget how it feels inside
                      (C)
you should try saying no once in a while

oh once in a while

(Am)
Take your taste back
               (C)
peel back your skin
            (F)
and try to forget how it feels inside
                      (C)
you should try saying no once in a while
(G)
oh once in a while

************************************

| /   slide up
| \   slide down
| h   hammer-on
| p   pull-off
| ~   vibrato
| +   harmonic
| x   Mute note
| b   Bend
| pb  Pre-bend
| br  Bend release
| pbr Pre-bend release
| brb Bend release bend

************************************
Suggest correction
Creating personal tab
Creating personal tab
You can edit any tab online and save it as your Personal.

You can edit, replace or remove any tab part or add personal notes – all changes will be seen only by you.

Personal tabs can be accessed anytime from any device, even offline.
Learn more »
Give kudos to tab author, rate the tab!
1 2 3 4 5
comments
print report bad tab
guest
You may want to rate the tab now too:
select rating
Wanna post a correction for this tab? Suggest correction