Oops, an error
Loading. Please wait.

My Songs Know What You Did In The Dark Light Em Up Acoustic Tab

4,196 views 15 this week
3 commentsread comments
1 2 3 4 5
excellent!
x 2
add to favorites
launch autoscroll
font size
0
reset
how to read this tab
guitar tuner
Tab Pro tools
  • play this tab
  • loop segment
  • change instrument
  • show fretboard
  • metronome
Autoscroll
slow
fast
+/-
esc
set tempo
stop
Contributor
Difficulty
intermediate
----------------------------------------------------------------------------
                             SONG NAME - Band Name
-------------------------------------------------------------------------------
This is the acoustic version of Fall Out Boys new hit song. 
Tab is related to their recent acoustic 
performance of this song. I've included the link 
below. In my mind its 99.9% correct. 
If you have any suggestions please leave 
them in the comment section. Thank You

http://www.youtube.com/watch?v=ZAIZRhamEVw

Tabbed by:RowdyNeil

E-mail:rowdyneil18@gmail.com

Tuning:Standard

Intro: The Whoah Whoah part 
e|---------------------------------------------------------------------------|
B|---------------------------------------------------------------------------|
G|---------------------------------------------------------------------------|
D|---------------------------------------------------------------------------|
A|-4444444444444444444444444444444444 (Palm mute and keep repeating till verse)
E|---------------------------------------------------------------------------|

Verses: (Chords)
e|-0----------------------x---------------0-----------------------------------
B|-5----------------------x---------------5-----------------------------------|
G|-6--(X2)----------------6---------------6-----------------------------------      
D|-6----------------------6-(Palm Mute)---7---(X2)(Down Strums for the X2's)--
A|-4----------------------4---------------x-----------------------------------
E|-x----------------------x---------------x-----------------------------------

e|-x--------------------------------------------------------------------------|
B|-5--------------------------------------------------------------------------|
G|-6-(Palm Mute)--------(ALL OF THIS x4 FOR THE VERSE)------------------------|
D|-7--------------------------------------------------------------------------|
A|-x--------------------------------------------------------------------------|
E|-x--------------------------------------------------------------------------|
   Prechorus:
e|---------------------------------------------------------------------------|
B|---------------------------------------------------------------------------|
G|--(SAME AS INTRO)----------------------------------------------------------|
D|---------------------------------------------------------------------------|
A|---------------------------------------------------------------------------|
E|---------------------------------------------------------------------------|
  Chorus:
e|-0--0--0--0-----------------------------------------------------------------|
B|-5--5--0--0-----------------------------------------------------------------|
G|-6--6--1--4----(X4)---------------------------------------------------------|
D|-6--7--2--4-----------------------------------------------------------------|
A|-4--0--2--2-----------------------------------------------------------------|
E|-x--x--0--x-----------------------------------------------------------------|
   

Verse 2 (same as verse 1 except when 
you get to the word ashes you mute all the strings for a second)

Prechorus 2: (same as prechorus 1)

Chorus 2: (same as chorus 1)

During the bridge you mute all the strings 
for the 1st part and just strum up and down. 
I can't really tell what Patrick's doing in 
the second part so just play the intro, that works
comments
We did not receive enough feedback on this tab! Please rate:
print report bad tab
1 2 3 4 5
3 comments total.
0 reply
RowdyNeil wrote on April 11 2013, 08:46 pm

I've noticed a slight mistake I made in the tab. The verse has an up and down strum instead of just one down strum. Also the (X2) in the verses show be for the first two chords not just the first.

0 reply
RowdyNeil wrote on April 11 2013, 08:56 pm

Opps. meant to say after the first 3 chords and the the verse goes as so

|--0----------------------0---------------0-------------------------------
B|-5----------------------5---------------0-------------------------------|
G|-6----------------------6---------------6------------------------------- (Palm Mute)X4 (Palm mute till chorus)
D|-6----------------------7---------------6-------------------------------
A|-4----------------------x---------------4-------------------------------
E|-x----------------------x---------------x-------------------------------

0 reply
RowdyNeil wrote on April 11 2013, 08:59 pm

Damn i need to learn how to comment on here lol. you palm mute the first two chords in the verse just ignore the 3rd and play the into part for the prechorus as it says

I want to post or [tab]
guest
You may want to rate the tab now too:
select rating
Please do not post tabs as comments. Select "correction" instead!