Oops, an error
Loading. Please wait.

My Songs Know What You Did In The Dark Light Em Up Tab

version 2
version 2

Interactive

23,700 views 72 this week
5 commentsread comments
1 2 3 4 5
x 22
add to favorites
launch autoscroll
font size
0
reset
how to read this tab
guitar tuner
Autoscroll
slow
fast
+/-
esc
set tempo
stop
Help us to improve Ultimate-Guitar.com Take our survey!
×
Author
Difficulty
novice
-------------------------------------------------------------------------
   My Songs Know What You Did In the Dark (Light Em Up) - Fall Out Boy
-------------------------------------------------------------------------
Tabbed by: Logan Reid
E-mail:loganblakereid@hotmail.com

Tuning: Standard (EADGBe)

[Intro note]
(Bend up slowly)
e|------|
B|------|
G|--7b--|
D|------|
A|------|
E|------|

[Optional]
(I play for fun)
   WHoooOOO00oo00OOO00oo00OO00oooah!
e|-------------------------------------|
B|----10--8-7-8--10--8-7-8--10--8\7\3--|
G|--7----------------------------------|
D|-------------------------------------|
A|-------------------------------------|
E|-------------------------------------|

[Verse 1] x2
e|---------------------|---------------------|
B|---------------------|---------------------|
G|-----------7-7-------|-----------3-3-------|
D|--77777777-7-7-7777--|--33333333-3-3-3333--|
A|--55555555-5-5-5555--|--11111111-1-1-1111--|
E|---------------------|---------------------|
pm  ********     ****     ********     **** 

e|--------------------|--------------------|
B|--------------------|--------------------|
G|--------------------|--------------------|
D|--7777777777777777--|--3333333333333333--|
A|--5555555555555555--|--1111111111111111--|
E|--------------------|--------------------|
pm  ****************     ****************

[Pre-Chorus]
(Slowly Release from Muting)
e|----------------|
B|----------------|
G|--777777777777--|
D|--777777777777--|
A|--555555555555--|
E|----------------|
pm  ******

[Chorus]
e|-------------------------------|
B|-------------------------------|
G|--7------3------10------5------|
D|--7-x16--3-x16--10-x16--5-x16--|
A|--5------1-------8------3------|
E|-------------------------------|

[2nd Guitar for Second Part]
(Plays more than this, but thats pretty obvious by ear)
e|--13----13----13----12-----|
B|-----15----15----15----13--|
G|---------------------------|
D|---------------------------|
A|---------------------------|
E|---------------------------|

[Verse 2]
(2nd time around the 331 unmuted powerchord is silenced)
e|---------------------|---------------------|
B|---------------------|---------------------|
G|-----------7-7-------|-----------3-3-------|
D|--77777777-7-7-7777--|--33333333-3-3-3333--|
A|--55555555-5-5-5555--|--11111111-1-1-1111--|
E|---------------------|---------------------|
pm  ********     ****     ********     **** 

e|--------------------|--------------------|
B|--------------------|--------------------|
G|--------------------|--------------------|
D|--7777777777777777--|--3333333333333333--|
A|--5555555555555555--|--1111111111111111--|
E|--------------------|--------------------|
pm  ****************     ****************

[Pre-Chorus]
(Slowly Release from Muting)
e|----------------|
B|----------------|
G|--777777777777--|
D|--777777777777--|
A|--555555555555--|
E|----------------|
pm  ******

[Chorus]
e|-------------------------------|
B|-------------------------------|
G|--7------3------10------5------|
D|--7-x16--3-x16--10-x16--5-x16--|
A|--5------1-------8------3------|
E|-------------------------------|

2nd Guitar
e|--13----13----13----12-----|
B|-----15----15----15----13--|
G|---------------------------|
D|---------------------------|
A|---------------------------|
E|---------------------------|

SILENCE! MY SONGS KNOW WHAT YOU DID IN THE DARK! I'M ON FIRE!!!

[Buildup]
(I think thats just bass but oh well)
e|---------------|
B|---------------|
G|---------------|
D|---------------|
A|--5-x24--1-x4--|
E|---------------|
pm  ***********

[Chorus]
(till the end)
e|-------------------------------|
B|-------------------------------|
G|--7------3------10------5------|
D|--7-x16--3-x16--10-x16--5-x16--|
A|--5------1-------8------3------|
E|-------------------------------|

2nd Guitar
e|--13----13----13----12-----|
B|-----15----15----15----13--|
G|---------------------------|
D|---------------------------|
A|---------------------------|
E|---------------------------|



************************************

| x  Dead note
| b  Bend
| \  Slide down

************************************
Suggest correction
comments
print report bad tab
5 comments total. Showing first comments. show 1 bad comment
+2 reply
MatthewC98 10 May 07, 2013 07:57 AM

e|-------------------------------------|
B|----10--8-6-8--10--8-6-8--10--8\7\3--|
G|--7----------------------------------|
D|-------------------------------------|
A|-------------------------------------|
E|-------------------------------------|

Sound more like that to me :)

+7 reply
bigpapi1434 10 Oct 24, 2013 12:29 AM

e|-----------------------------------------|
B|----10--8-6-8--10--8-6-8--10-------------|
G|--7---------------------------10/9/7-----|
D|-----------------------------------------|
A|-----------------------------------------|
E|-----------------------------------------|

Maybe it's just me, but this is what sounds right to me

guest
You may want to rate the tab now too:
select rating
Wanna post a correction for this tab? Suggest correction