Oops, an error
Loading. Please wait.

My Songs Know What You Did In The Dark Light Em Up Tab

version 4
version 4

Interactive

42,107 views 69 this week
8 commentsread comments
1 2 3 4 5
x 18
add to favorites
launch autoscroll
font size
0
reset
how to read this tab
guitar tuner
Autoscroll
slow
fast
+/-
esc
set tempo
stop
Help us to improve Ultimate-Guitar.com Take our survey!
×
Author
Difficulty
Tuning
novice
D A D G B E
Title: My Songs Know What You Did In The Dark (Light Em Up)
Artist: Fall Out Boy
Tempo = 155
Guitar 1

GUITAR 1 (GUITAR 2 TABS FOLLOW GUITAR 1 TABS AND THEN BASS)
E|-------|-------|-------|-------|-------|-------|-------|
B|-------|-------|-------|-------|-------|-------|-------|
G|-------|-------|-------|-------|-------|-------|-------|
D|-------|-------|-------|-------|-------|-------|-------|
A|-------|-------|-------|-------|-------|-------|-------|
D|-------|-------|-------|-------|-------|-------|-------|

E|----------------------------|----------------------------|
B|----------------------------|----------------------------|
G|-----------------------2s---|--7~-7~-7~-7~-7~-7~-7~-7~---|
D|----------------------------|----------------------------|
A|----------------------------|----------------------------|
D|----------------------------|----------------------------|

E|----------------------------|----------------------------|
B|----------------------------|----------------------------|
G|--7~-7~-7~-7~-7~-7~-7~-7~---|--7~-7~-7~-7~-7~-7~-7~-7~---|
D|----------------------------|----------------------------|
A|----------------------------|----------------------------|
D|----------------------------|----------------------------|

E|----------------------------|----------------------------|
B|----------------------------|----------------------------|
G|--7~-7~-7~-7~-7~-7~-7~-7~---|----------------------------|
D|----------------------------|--7M-7M-7M-7M-7M-7M-7M-7M---|
A|----------------------------|--5M-5M-5M-5M-5M-5M-5M-5M---|
D|----------------------------|----------------------------|

E|----------------------------|----------------------------|
B|----------------------------|----------------------------|
G|----------------------------|----------------------------|
D|--7M-7M-7M-7M-7M-7M-7M-7M---|--3M-3M-3M-3M-3M-3M-3M-3M---|
A|--5M-5M-5M-5M-5M-5M-5M-5M---|--1M-1M-1M-1M-1M-1M-1M-1M---|
D|----------------------------|----------------------------|

E|----------------------------|----------------------------|
B|----------------------------|----------------------------|
G|----------------------------|----------------------------|
D|--3M-3M-3M-3M-3M-3M-3M-3M---|--7M-7M-7M-7M-7M-7M-7M-7M---|
A|--1M-1M-1M-1M-1M-1M-1M-1M---|--5M-5M-5M-5M-5M-5M-5M-5M---|
D|----------------------------|----------------------------|

E|----------------------------|----------------------------|
B|----------------------------|----------------------------|
G|----------------------------|----------------------------|
D|--7M-7M-7M-7M-7M-7M-7M-7M---|--3M-3M-3M-3M-3M-3M-3M-3M---|
A|--5M-5M-5M-5M-5M-5M-5M-5M---|--1M-1M-1M-1M-1M-1M-1M-1M---|
D|----------------------------|----------------------------|

E|----------------------------|----------------------------|
B|----------------------------|----------------------------|
G|----------------------------|----------------------------|
D|--3M-3M-3M-3M-3M-3M-3M-3M---|--7M-7M-7M-7M-7M-7M-7M-7M---|
A|--1M-1M-1M-1M-1M-1M-1M-1M---|--5M-5M-5M-5M-5M-5M-5M-5M---|
D|----------------------------|----------------------------|

E|----------------------------|----------------------------|
B|----------------------------|----------------------------|
G|----------------------------|----------------------------|
D|--7M-7M-7M-7M-7M-7M-7M-7M---|--3M-3M-3M-3M-3M-3M-3M-3M---|
A|--5M-5M-5M-5M-5M-5M-5M-5M---|--1M-1M-1M-1M-1M-1M-1M-1M---|
D|----------------------------|----------------------------|

E|----------------------------|----------------------------|
B|----------------------------|----------------------------|
G|----------------------------|----------------------------|
D|--3M-3M-3M-3M-3M-3M-3M-3M---|--7M-7M-7M-7M-7M-7M-7M-7M---|
A|--1M-1M-1M-1M-1M-1M-1M-1M---|--5M-5M-5M-5M-5M-5M-5M-5M---|
D|----------------------------|----------------------------|

E|----------------------------|----------------------------|
B|----------------------------|----------------------------|
G|----------------------------|----------------------------|
D|--7M-7M-7M-7M-7M-7M-7M-7M---|--3M-3M-3M-3M-3M-3M-3M-3M---|
A|--5M-5M-5M-5M-5M-5M-5M-5M---|--1M-1M-1M-1M-1M-1M-1M-1M---|
D|----------------------------|----------------------------|

E|----------------------------|----------------------------|
B|----------------------------|----------------------------|
G|----------------------------|----------------------------|
D|--3M-3M-3M-3M-3M-3M-3M-3M---|--7M-7M-7M-7M-7M-7M-7M-7M---|
A|--1M-1M-1M-1M-1M-1M-1M-1M---|--5M-5M-5M-5M-5M-5M-5M-5M---|
D|----------------------------|----------------------------|

E|----------------------------|----------------------------|
B|----------------------------|----------------------------|
G|----------------------------|--7--7--7--7--7--7--7--7----|
D|--7M-7M-7M-7M-7M-7M-7M-7M---|--7M-7M-7M-7M-7M-7M-7M-7M---|
A|--5M-5M-5M-5M-5M-5M-5M-5M---|--5M-5M-5M-5M-5M-5M-5M-5M---|
D|----------------------------|----------------------------|

E|----------------------------|----------------------------|
B|----------------------------|----------------------------|
G|--7--7--7--7--7-------------|--7--7--7--7--7--7--7--7----|
D|--7M-7M-7M-7M-7M------------|--7--7--7--7--7--7--7--7----|
A|--5M-5M-5M-5M-5M------------|--5--5--5--5--5--5--5--5----|
D|----------------------------|----------------------------|

E|----------------------------|----------------------------|
B|----------------------------|----------------------------|
G|--3--3--3--3--3--3--3--3----|----------------------------|
D|--3--3--3--3--3--3--3--3----|--3--3--3--3--3--3--3--3----|
A|--1--1--1--1--1--1--1--1----|--3--3--3--3--3--3--3--3----|
D|----------------------------|--3--3--3--3--3--3--3--3----|

E|----------------------------|----------------------------|
B|----------------------------|----------------------------|
G|--5--5--5--5--5--5--5--5----|--7--7--7--7--7--7--7--7----|
D|--5--5--5--5--5--5--5--5----|--7--7--7--7--7--7--7--7----|
A|--3--3--3--3--3--3--3--3----|--5--5--5--5--5--5--5--5----|
D|----------------------------|----------------------------|

E|----------------------------|----------------------------|
B|----------------------------|----------------------------|
G|--3--3--3--3--3--3--3--3----|----------------------------|
D|--3--3--3--3--3--3--3--3----|--3--3--3--3--3--3--3--3----|
A|--1--1--1--1--1--1--1--1----|--3--3--3--3--3--3--3--3----|
D|----------------------------|--3--3--3--3--3--3--3--3----|

E|----------------------------|----------------------------|
B|----------------------------|----------------------------|
G|--5--5--5--5--5--5--5--5----|--7--7--7--7--7--7--7--7----|
D|--5--5--5--5--5--5--5--5----|--7--7--7--7--7--7--7--7----|
A|--3--3--3--3--3--3--3--3----|--5--5--5--5--5--5--5--5----|
D|----------------------------|----------------------------|

E|----------------------------|----------------------------|
B|----------------------------|----------------------------|
G|--3--3--3--3--3--3--3--3----|----------------------------|
D|--3--3--3--3--3--3--3--3----|--3--3--3--3--3--3--3--3----|
A|--1--1--1--1--1--1--1--1----|--3--3--3--3--3--3--3--3----|
D|----------------------------|--3--3--3--3--3--3--3--3----|

E|----------------------------|----------------------------|
B|----------------------------|----------------------------|
G|--5--5--5--5--5--5--5--5----|--7--7--7--7--7--7--7--7----|
D|--5--5--5--5--5--5--5--5----|--7--7--7--7--7--7--7--7----|
A|--3--3--3--3--3--3--3--3----|--5--5--5--5--5--5--5--5----|
D|----------------------------|----------------------------|

E|----------------------------|----------------------------|
B|----------------------------|----------------------------|
G|--3--3--3--3--3--3--3--3----|----------------------------|
D|--3--3--3--3--3--3--3--3----|--3--3--3--3--3--3--3--3----|
A|--1--1--1--1--1--1--1--1----|--3--3--3--3--3--3--3--3----|
D|----------------------------|--3--3--3--3--3--3--3--3----|

E|----------------------------|----------------------------|
B|----------------------------|----------------------------|
G|--5--5--5--5--5--5--5--5----|----------------------------|
D|--5--5--5--5--5--5--5--5----|--7M-7M-7M-7M-7M-7M-7M-7M---|
A|--3--3--3--3--3--3--3--3----|--5M-5M-5M-5M-5M-5M-5M-5M---|
D|----------------------------|----------------------------|

E|----------------------------|----------------------------|
B|----------------------------|----------------------------|
G|----------------------------|----------------------------|
D|--7M-7M-7M-7M-7M-7M-7M-7M---|--3M-3M-3M-3M-3M-3M-3M-3M---|
A|--5M-5M-5M-5M-5M-5M-5M-5M---|--1M-1M-1M-1M-1M-1M-1M-1M---|
D|----------------------------|----------------------------|

E|----------------------------|----------------------------|
B|----------------------------|----------------------------|
G|----------------------------|----------------------------|
D|--3M-3M-3M-3M-3M-3M-3M-3M---|--7M-7M-7M-7M-7M-7M-7M-7M---|
A|--1M-1M-1M-1M-1M-1M-1M-1M---|--5M-5M-5M-5M-5M-5M-5M-5M---|
D|----------------------------|----------------------------|

E|----------------------------|----------------------------|
B|----------------------------|----------------------------|
G|----------------------------|----------------------------|
D|--7M-7M-7M-7M-7M-7M-7M-7M---|--3M-3M-3M-3M-3M-3M-3M-3M---|
A|--5M-5M-5M-5M-5M-5M-5M-5M---|--1M-1M-1M-1M-1M-1M-1M-1M---|
D|----------------------------|----------------------------|

E|----------------------------|----------------------------|
B|----------------------------|----------------------------|
G|----------------------------|----------------------------|
D|--3M-3M-3M-3M-3M-3M-3M-3M---|--7M-7M-7M-7M-7M-7M-7M-7M---|
A|--1M-1M-1M-1M-1M-1M-1M-1M---|--5M-5M-5M-5M-5M-5M-5M-5M---|
D|----------------------------|----------------------------|

E|----------------------------|----------------------------|-------|
B|----------------------------|----------------------------|-------|
G|----------------------------|----------------------------|-------|
D|--7M-7M-7M-7M-7M-7M-7M-7M---|--3M-3M-3M-3M-3M-3M-3M-3M---|-------|
A|--5M-5M-5M-5M-5M-5M-5M-5M---|--1M-1M-1M-1M-1M-1M-1M-1M---|-------|
D|----------------------------|----------------------------|-------|

E|----------------------------|----------------------------|
B|----------------------------|----------------------------|
G|----------------------------|----------------------------|
D|--7M-7M-7M-7M-7M-7M-7M-7M---|--7M-7M-7M-7M-7M-7M-7M-7M---|
A|--5M-5M-5M-5M-5M-5M-5M-5M---|--5M-5M-5M-5M-5M-5M-5M-5M---|
D|----------------------------|----------------------------|

E|----------------------------|----------------------------|
B|----------------------------|----------------------------|
G|----------------------------|----------------------------|
D|--3M-3M-3M-3M-3M-3M-3M-3M---|--3M-3M-3M-3M-3M-3M-3M-3M---|
A|--1M-1M-1M-1M-1M-1M-1M-1M---|--1M-1M-1M-1M-1M-1M-1M-1M---|
D|----------------------------|----------------------------|

E|----------------------------|----------------------------|
B|----------------------------|----------------------------|
G|----------------------------|----------------------------|
D|--7M-7M-7M-7M-7M-7M-7M-7M---|--7M-7M-7M-7M-7M-7M-7M-7M---|
A|--5M-5M-5M-5M-5M-5M-5M-5M---|--5M-5M-5M-5M-5M-5M-5M-5M---|
D|----------------------------|----------------------------|

E|----------------------------|----------------------------|
B|----------------------------|----------------------------|
G|--7--7--7--7--7--7--7--7----|--7--7--7--7--7-------------|
D|--7M-7M-7M-7M-7M-7M-7M-7M---|--7M-7M-7M-7M-7M------------|
A|--5M-5M-5M-5M-5M-5M-5M-5M---|--5M-5M-5M-5M-5M------------|
D|----------------------------|----------------------------|

E|----------------------------|----------------------------|
B|----------------------------|----------------------------|
G|--7--7--7--7--7--7--7--7----|--3--3--3--3--3--3--3--3----|
D|--7--7--7--7--7--7--7--7----|--3--3--3--3--3--3--3--3----|
A|--5--5--5--5--5--5--5--5----|--1--1--1--1--1--1--1--1----|
D|----------------------------|----------------------------|

E|----------------------------|----------------------------|
B|----------------------------|----------------------------|
G|----------------------------|--5--5--5--5--5--5--5--5----|
D|--3--3--3--3--3--3--3--3----|--5--5--5--5--5--5--5--5----|
A|--3--3--3--3--3--3--3--3----|--3--3--3--3--3--3--3--3----|
D|--3--3--3--3--3--3--3--3----|----------------------------|

E|----------------------------|----------------------------|
B|----------------------------|----------------------------|
G|--7--7--7--7--7--7--7--7----|--3--3--3--3--3--3--3--3----|
D|--7--7--7--7--7--7--7--7----|--3--3--3--3--3--3--3--3----|
A|--5--5--5--5--5--5--5--5----|--1--1--1--1--1--1--1--1----|
D|----------------------------|----------------------------|

E|----------------------------|----------------------------|
B|----------------------------|----------------------------|
G|----------------------------|--5--5--5--5--5--5--5--5----|
D|--3--3--3--3--3--3--3--3----|--5--5--5--5--5--5--5--5----|
A|--3--3--3--3--3--3--3--3----|--3--3--3--3--3--3--3--3----|
D|--3--3--3--3--3--3--3--3----|----------------------------|

E|----------------------------|----------------------------|
B|----------------------------|----------------------------|
G|--7--7--7--7--7--7--7--7----|--3--3--3--3--3--3--3--3----|
D|--7--7--7--7--7--7--7--7----|--3--3--3--3--3--3--3--3----|
A|--5--5--5--5--5--5--5--5----|--1--1--1--1--1--1--1--1----|
D|----------------------------|----------------------------|

E|----------------------------|----------------------------|
B|----------------------------|----------------------------|
G|----------------------------|--5--5--5--5--5--5--5--5----|
D|--3--3--3--3--3--3--3--3----|--5--5--5--5--5--5--5--5----|
A|--3--3--3--3--3--3--3--3----|--3--3--3--3--3--3--3--3----|
D|--3--3--3--3--3--3--3--3----|----------------------------|

E|----------------------------|----------------------------|
B|----------------------------|----------------------------|
G|--7--7--7--7--7--7--7--7----|--3--3--3--3--3--3--3--3----|
D|--7--7--7--7--7--7--7--7----|--3--3--3--3--3--3--3--3----|
A|--5--5--5--5--5--5--5--5----|--1--1--1--1--1--1--1--1----|
D|----------------------------|----------------------------|

E|----------------------------|----------------------------|-------|-------|
B|----------------------------|----------------------------|-------|-------|
G|----------------------------|--5--5--5--5--5--5--5--5----|-------|-------|
D|--3--3--3--3--3--3--3--3----|--5--5--5--5--5--5--5--5----|-------|-------|
A|--3--3--3--3--3--3--3--3----|--3--3--3--3--3--3--3--3----|-------|-------|
D|--3--3--3--3--3--3--3--3----|----------------------------|-------|-------|

E|-------|-------|-------|-------|-------|-------|-------|-------|-------|-------|
B|-------|-------|-------|-------|-------|-------|-------|-------|-------|-------|
G|-------|-------|-------|-------|-------|-------|-------|-------|-------|-------|
D|-------|-------|-------|-------|-------|-------|-------|-------|-------|-------|
A|-------|-------|-------|-------|-------|-------|-------|-------|-------|-------|
D|-------|-------|-------|-------|-------|-------|-------|-------|-------|-------|

E|-------|----------------------------|----------------------------|
B|-------|----------------------------|----------------------------|
G|-------|--7--7--7--7--7--7--7--7----|--3--3--3--3--3--3--3--3----|
D|-------|--7--7--7--7--7--7--7--7----|--3--3--3--3--3--3--3--3----|
A|-------|--5--5--5--5--5--5--5--5----|--1--1--1--1--1--1--1--1----|
D|-------|----------------------------|----------------------------|

E|----------------------------|----------------------------|
B|----------------------------|----------------------------|
G|----------------------------|--5--5--5--5--5--5--5--5----|
D|--3--3--3--3--3--3--3--3----|--5--5--5--5--5--5--5--5----|
A|--3--3--3--3--3--3--3--3----|--3--3--3--3--3--3--3--3----|
D|--3--3--3--3--3--3--3--3----|----------------------------|

E|----------------------------|----------------------------|
B|----------------------------|----------------------------|
G|--7--7--7--7--7--7--7--7----|--3--3--3--3--3--3--3--3----|
D|--7--7--7--7--7--7--7--7----|--3--3--3--3--3--3--3--3----|
A|--5--5--5--5--5--5--5--5----|--1--1--1--1--1--1--1--1----|
D|----------------------------|----------------------------|

E|----------------------------|----------------------------|
B|----------------------------|----------------------------|
G|----------------------------|--5--5--5--5--5--5--5--5----|
D|--3--3--3--3--3--3--3--3----|--5--5--5--5--5--5--5--5----|
A|--3--3--3--3--3--3--3--3----|--3--3--3--3--3--3--3--3----|
D|--3--3--3--3--3--3--3--3----|----------------------------|

E|----------------------------|----------------------------|
B|----------------------------|----------------------------|
G|--7--7--7--7--7--7--7--7----|--3--3--3--3--3--3--3--3----|
D|--7--7--7--7--7--7--7--7----|--3--3--3--3--3--3--3--3----|
A|--5--5--5--5--5--5--5--5----|--1--1--1--1--1--1--1--1----|
D|----------------------------|----------------------------|

E|----------------------------|----------------------------|
B|----------------------------|----------------------------|
G|----------------------------|--5--5--5--5--5--5--5--5----|
D|--3--3--3--3--3--3--3--3----|--5--5--5--5--5--5--5--5----|
A|--3--3--3--3--3--3--3--3----|--3--3--3--3--3--3--3--3----|
D|--3--3--3--3--3--3--3--3----|----------------------------|

E|----------------------------|----------------------------|
B|----------------------------|----------------------------|
G|--7--7--7--7--7--7--7--7----|--3--3--3--3--3--3--3--3----|
D|--7--7--7--7--7--7--7--7----|--3--3--3--3--3--3--3--3----|
A|--5--5--5--5--5--5--5--5----|--1--1--1--1--1--1--1--1----|
D|----------------------------|----------------------------|

E|----------------------------|----------------------------|-------|-------|
B|----------------------------|----------------------------|-------|-------|
G|----------------------------|--5--5--5--5--5--5--5--5----|-------|-------|
D|--3--3--3--3--3--3--3--3----|--5--5--5--5--5--5--5--5----|-------|-------|
A|--3--3--3--3--3--3--3--3----|--3--3--3--3--3--3--3--3----|-------|-------|
D|--3--3--3--3--3--3--3--3----|----------------------------|-------|-------|

E|-------|-------||
B|-------|-------||
G|-------|-------||
D|-------|-------||
A|-------|-------||
D|-------|-------||


GUITAR 2 (BASS TABS ARE FOUND FURTHER DOWN)
E|-------|-------|-------|-------|-------|-------|-------|-------|-------|
B|-------|-------|-------|-------|-------|-------|-------|-------|-------|
G|-------|-------|-------|-------|-------|-------|-------|-------|-------|
D|-------|-------|-------|-------|-------|-------|-------|-------|-------|
A|-------|-------|-------|-------|-------|-------|-------|-------|-------|
D|-------|-------|-------|-------|-------|-------|-------|-------|-------|

E|-------|-------|-------|-------|----------------|-------|----------------|
B|-------|-------|-------|-------|----------------|-------|----------------|
G|-------|-------|-------|-------|----------------|-------|--3--3----------|
D|-------|-------|-------|-------|--0--0----------|-------|--3--3----------|
A|-------|-------|-------|-------|--0--0----------|-------|--1--1----------|
D|-------|-------|-------|-------|--0--0----------|-------|----------------|

E|-------|-------|-------|-------|-------|----------------|-------|
B|-------|-------|-------|-------|-------|----------------|-------|
G|-------|-------|-------|-------|-------|----------------|-------|
D|-------|-------|-------|-------|-------|--0--0----------|-------|
A|-------|-------|-------|-------|-------|--0--0----------|-------|
D|-------|-------|-------|-------|-------|--0--0----------|-------|

E|----------------|-------|----|----|----|----|----|----|----|
B|----------------|-------|----|----|----|----|----|----|----|
G|--3--3----------|-------|----|----|----|----|----|----|----|
D|--3--3----------|-------|----|----|----|----|----|----|----|
A|--1--1----------|-------|----|----|----|----|----|----|----|
D|----------------|-------|----|----|----|----|----|----|----|

E|----------------------------|----------------------------|
B|----------------------------|----------------------------|
G|--10-10-10-10-10-10-10-10---|--7--7--7--7--7--7--7--7----|
D|--10-10-10-10-10-10-10-10---|--8--8--8--8--8--8--8--8----|
A|----------------------------|----------------------------|
D|----------------------------|----------------------------|

E|----------------------------|----------------------------|
B|----------------------------|----------------------------|
G|--10-10-10-10-10-10-10-10---|--9--9--9--9--9--9--9--9----|
D|--10-10-10-10-10-10-10-10---|--10-10-10-10-10-10-10-10---|
A|----------------------------|----------------------------|
D|----------------------------|----------------------------|

E|----------------------------|----------------------------|
B|----------------------------|----------------------------|
G|--10-10-10-10-10-10-10-10---|--7--7--7--7--7--7--7--7----|
D|--10-10-10-10-10-10-10-10---|--8--8--8--8--8--8--8--8----|
A|----------------------------|----------------------------|
D|----------------------------|----------------------------|

E|----------------------------|----------------------------|
B|----------------------------|-----------------------15s--|
G|--10-10-10-10-10-10-10-10---|--9--9--9--9--9--9--9-------|
D|--10-10-10-10-10-10-10-10---|--10-10-10-10-10-10-10------|
A|----------------------------|----------------------------|
D|----------------------------|----------------------------|

E|--13----13----13----13------|--13----13----13----13------|
B|-----15----15----15----15---|-----15----15----15----15---|
G|----------------------------|----------------------------|
D|----------------------------|----------------------------|
A|----------------------------|----------------------------|
D|----------------------------|----------------------------|

E|--13----13----13----13------|--12----12----12----12------|
B|-----15----15----15----15---|-----13----13----13----13---|
G|----------------------------|----------------------------|
D|----------------------------|----------------------------|
A|----------------------------|----------------------------|
D|----------------------------|----------------------------|

E|--13----13----13----13------|--13----13----13----13------|
B|-----15----15----15----15---|-----15----15----15----15---|
G|----------------------------|----------------------------|
D|----------------------------|----------------------------|
A|----------------------------|----------------------------|
D|----------------------------|----------------------------|

E|--13----13----13----13------|--12----12----12----12------|-------|
B|-----15----15----15----15---|-----13----13----13----13---|-------|
G|----------------------------|----------------------------|-------|
D|----------------------------|----------------------------|-------|
A|----------------------------|----------------------------|-------|
D|----------------------------|----------------------------|-------|

E|----------------|-------|----------------|-------|-------|-------|-------|
B|----------------|-------|----------------|-------|-------|-------|-------|
G|----------------|-------|--3--3----------|-------|-------|-------|-------|
D|--0--0----------|-------|--3--3----------|-------|-------|-------|-------|
A|--0--0----------|-------|--1--1----------|-------|-------|-------|-------|
D|--0--0----------|-------|----------------|-------|-------|-------|-------|

E|-------|----------------|-------|-------|-------|-------|-------|-------|
B|-------|----------------|-------|-------|-------|-------|-------|-------|
G|-------|----------------|-------|-------|-------|-------|-------|-------|
D|-------|--0--0----------|-------|-------|-------|-------|-------|-------|
A|-------|--0--0----------|-------|-------|-------|-------|-------|-------|
D|-------|--0--0----------|-------|-------|-------|-------|-------|-------|

E|-------|-------|-------|-------|----------------------------|
B|-------|-------|-------|-------|----------------------------|
G|-------|-------|-------|-------|--10-10-10-10-10-10-10-10---|
D|-------|-------|-------|-------|--10-10-10-10-10-10-10-10---|
A|-------|-------|-------|-------|----------------------------|
D|-------|-------|-------|-------|----------------------------|

E|----------------------------|----------------------------|
B|----------------------------|----------------------------|
G|--7--7--7--7--7--7--7--7----|--10-10-10-10-10-10-10-10---|
D|--8--8--8--8--8--8--8--8----|--10-10-10-10-10-10-10-10---|
A|----------------------------|----------------------------|
D|----------------------------|----------------------------|

E|----------------------------|----------------------------|
B|----------------------------|----------------------------|
G|--9--9--9--9--9--9--9--9----|--10-10-10-10-10-10-10-10---|
D|--10-10-10-10-10-10-10-10---|--10-10-10-10-10-10-10-10---|
A|----------------------------|----------------------------|
D|----------------------------|----------------------------|

E|----------------------------|----------------------------|
B|----------------------------|----------------------------|
G|--7--7--7--7--7--7--7--7----|--10-10-10-10-10-10-10-10---|
D|--8--8--8--8--8--8--8--8----|--10-10-10-10-10-10-10-10---|
A|----------------------------|----------------------------|
D|----------------------------|----------------------------|

E|----------------------------|--13----13----13----13------|
B|-----------------------15s--|-----15----15----15----15---|
G|--9--9--9--9--9--9--9-------|----------------------------|
D|--10-10-10-10-10-10-10------|----------------------------|
A|----------------------------|----------------------------|
D|----------------------------|----------------------------|

E|--13----13----13----13------|--13----13----13----13------|
B|-----15----15----15----15---|-----15----15----15----15---|
G|----------------------------|----------------------------|
D|----------------------------|----------------------------|
A|----------------------------|----------------------------|
D|----------------------------|----------------------------|

E|--12----12----12----12------|--13----13----13----13------|
B|-----13----13----13----13---|-----15----15----15----15---|
G|----------------------------|----------------------------|
D|----------------------------|----------------------------|
A|----------------------------|----------------------------|
D|----------------------------|----------------------------|

E|--13----13----13----13------|--13----13----13----13------|
B|-----15----15----15----15---|-----15----15----15----15---|
G|----------------------------|----------------------------|
D|----------------------------|----------------------------|
A|----------------------------|----------------------------|
D|----------------------------|----------------------------|

E|--12----12----12----12------|-------|-------|-------|-------|-------|-------|
B|-----13----13----13----13---|-------|-------|-------|-------|-------|-------|
G|----------------------------|-------|-------|-------|-------|-------|-------|
D|----------------------------|-------|-------|-------|-------|-------|-------|
A|----------------------------|-------|-------|-------|-------|-------|-------|
D|----------------------------|-------|-------|-------|-------|-------|-------|

E|-------|-------|-------|-------|-------|-------|-------|
B|-------|-------|-------|-------|-------|-------|-------|
G|-------|-------|-------|-------|-------|-------|-------|
D|-------|-------|-------|-------|-------|-------|-------|
A|-------|-------|-------|-------|-------|-------|-------|
D|-------|-------|-------|-------|-------|-------|-------|

E|----------------------------|----------------------------|
B|----------------------------|----------------------------|
G|--10-10-10-10-10-10-10-10---|--7--7--7--7--7--7--7--7----|
D|--10-10-10-10-10-10-10-10---|--8--8--8--8--8--8--8--8----|
A|----------------------------|----------------------------|
D|----------------------------|----------------------------|

E|----------------------------|----------------------------|
B|----------------------------|----------------------------|
G|--10-10-10-10-10-10-10-10---|--9--9--9--9--9--9--9--9----|
D|--10-10-10-10-10-10-10-10---|--10-10-10-10-10-10-10-10---|
A|----------------------------|----------------------------|
D|----------------------------|----------------------------|

E|----------------------------|----------------------------|
B|----------------------------|----------------------------|
G|--10-10-10-10-10-10-10-10---|--7--7--7--7--7--7--7--7----|
D|--10-10-10-10-10-10-10-10---|--8--8--8--8--8--8--8--8----|
A|----------------------------|----------------------------|
D|----------------------------|----------------------------|

E|----------------------------|----------------------------|
B|----------------------------|-----------------------15s--|
G|--10-10-10-10-10-10-10-10---|--9--9--9--9--9--9--9-------|
D|--10-10-10-10-10-10-10-10---|--10-10-10-10-10-10-10------|
A|----------------------------|----------------------------|
D|----------------------------|----------------------------|

E|--13----13----13----13------|--13----13----13----13------|
B|-----15----15----15----15---|-----15----15----15----15---|
G|----------------------------|----------------------------|
D|----------------------------|----------------------------|
A|----------------------------|----------------------------|
D|----------------------------|----------------------------|

E|--13----13----13----13------|--12----12----12----12------|
B|-----15----15----15----15---|-----13----13----13----13---|
G|----------------------------|----------------------------|
D|----------------------------|----------------------------|
A|----------------------------|----------------------------|
D|----------------------------|----------------------------|

E|--13----13----13----13------|--13----13----13----13------|
B|-----15----15----15----15---|-----15----15----15----15---|
G|----------------------------|----------------------------|
D|----------------------------|----------------------------|
A|----------------------------|----------------------------|
D|----------------------------|----------------------------|

E|--13----13----13----13------|--12----12----12----12------|-------|-------|
B|-----15----15----15----15---|-----13----13----13----13---|-------|-------|
G|----------------------------|----------------------------|-------|-------|
D|----------------------------|----------------------------|-------|-------|
A|----------------------------|----------------------------|-------|-------|
D|----------------------------|----------------------------|-------|-------|

E|-------|-------||
B|-------|-------||
G|-------|-------||
D|-------|-------||
A|-------|-------||
D|-------|-------||

BASS TABS 
G|-------|-------|-------|-------|-------|-------|-------|-------|-------|
D|-------|-------|-------|-------|-------|-------|-------|-------|-------|
A|-------|-------|-------|-------|-------|-------|-------|-------|-------|
E|-------|-------|-------|-------|-------|-------|-------|-------|-------|

G|-------|-------|-------|-------|----------------|-------|----------------|
D|-------|-------|-------|-------|----------------|-------|----------------|
A|-------|-------|-------|-------|----------------|-------|--1--1----------|
E|-------|-------|-------|-------|--0--0----------|-------|----------------|

G|-------|-------|-------|-------|-------|----------------|-------|
D|-------|-------|-------|-------|-------|----------------|-------|
A|-------|-------|-------|-------|-------|----------------|-------|
E|-------|-------|-------|-------|-------|--0--0----------|-------|

G|----------------|-------|-------|-------|-------|-------|-------|-------|
D|----------------|-------|-------|-------|-------|-------|-------|-------|
A|--1--1----------|-------|-------|-------|-------|-------|-------|-------|
E|----------------|-------|-------|-------|-------|-------|-------|-------|

G|-------|----------------------------|----------------------------|
D|-------|----------------------------|----------------------------|
A|-------|--5--5--5--5--5--5--5--5----|--1--1--1--1--1--1--1--1----|
E|-------|----------------------------|----------------------------|

G|----------------------------|----------------------------|
D|----------------------------|----------------------------|
A|----------------------------|--3--3--3--3--3--3--3--3----|
E|--3--3--3--3--3--3--3--3----|----------------------------|

G|----------------------------|----------------------------|
D|----------------------------|----------------------------|
A|--5--5--5--5--5--5--5--5----|--1--1--1--1--1--1--1--1----|
E|----------------------------|----------------------------|

G|----------------------------|----------------------------|
D|----------------------------|----------------------------|
A|----------------------------|--3--3--3--3--3--3--3--3----|
E|--3--3--3--3--3--3--3--3----|----------------------------|

G|----------------------------|----------------------------|
D|----------------------------|----------------------------|
A|--5--5--5--5--5--5--5--5----|--1--1--1--1--1--1--1--1----|
E|----------------------------|----------------------------|

G|----------------------------|----------------------------|
D|----------------------------|----------------------------|
A|----------------------------|--3--3--3--3--3--3--3--3----|
E|--3--3--3--3--3--3--3--3----|----------------------------|

G|----------------------------|----------------------------|
D|----------------------------|----------------------------|
A|--5--5--5--5--5--5--5--5----|--1--1--1--1--1--1--1--1----|
E|----------------------------|----------------------------|

G|----------------------------|----------------------------|----|----------------|
D|----------------------------|----------------------------|----|----------------|
A|----------------------------|--3--3--3--3--3--3--3--3----|----|----------------|
E|--3--3--3--3--3--3--3--3----|----------------------------|----|--0--0----------|

G|----|----------------|-------|-------|-------|-------|-------|----------------|
D|----|----------------|-------|-------|-------|-------|-------|----------------|
A|----|--1--1----------|-------|-------|-------|-------|-------|----------------|
E|----|----------------|-------|-------|-------|-------|-------|--0--0----------|

G|-------|-------|-------|-------|-------|-------|-------|-------|-------|-------|
D|-------|-------|-------|-------|-------|-------|-------|-------|-------|-------|
A|-------|-------|-------|-------|-------|-------|-------|-------|-------|-------|
E|-------|-------|-------|-------|-------|-------|-------|-------|-------|-------|

G|----------------------------|----------------------------|
D|----------------------------|----------------------------|
A|--5--5--5--5--5--5--5--5----|--1--1--1--1--1--1--1--1----|
E|----------------------------|----------------------------|

G|----------------------------|----------------------------|
D|----------------------------|----------------------------|
A|----------------------------|--3--3--3--3--3--3--3--3----|
E|--3--3--3--3--3--3--3--3----|----------------------------|

G|----------------------------|----------------------------|
D|----------------------------|----------------------------|
A|--5--5--5--5--5--5--5--5----|--1--1--1--1--1--1--1--1----|
E|----------------------------|----------------------------|

G|----------------------------|----------------------------|
D|----------------------------|----------------------------|
A|----------------------------|--3--3--3--3--3--3--3--3----|
E|--3--3--3--3--3--3--3--3----|----------------------------|

G|----------------------------|----------------------------|
D|----------------------------|----------------------------|
A|--5--5--5--5--5--5--5--5----|--1--1--1--1--1--1--1--1----|
E|----------------------------|----------------------------|

G|----------------------------|----------------------------|
D|----------------------------|----------------------------|
A|----------------------------|--3--3--3--3--3--3--3--3----|
E|--3--3--3--3--3--3--3--3----|----------------------------|

G|----------------------------|----------------------------|
D|----------------------------|----------------------------|
A|--5--5--5--5--5--5--5--5----|--1--1--1--1--1--1--1--1----|
E|----------------------------|----------------------------|

G|----------------------------|----------------------------|-------|-------|
D|----------------------------|----------------------------|-------|-------|
A|----------------------------|--3--3--3--3--3--3--3--3----|-------|-------|
E|--3--3--3--3--3--3--3--3----|----------------------------|-------|-------|

G|-------|-------|-------|-------|-------|-------|----------------------------|
D|-------|-------|-------|-------|-------|-------|----------------------------|
A|-------|-------|-------|-------|-------|-------|--5--5--5--5--5--5--5--5----|
E|-------|-------|-------|-------|-------|-------|----------------------------|

G|----------------------------|----------------------------|
D|----------------------------|----------------------------|
A|--5--5--5--5--5--5--5--5----|--5--5--5--5--5--5--5--5----|
E|----------------------------|----------------------------|

G|----------------------------|-------|----------------------------|
D|----------------------------|-------|----------------------------|
A|--3--3--3--3----------------|-------|--5--5--5--5--5--5--5--5----|
E|----------------------------|-------|----------------------------|

G|----------------------------|----------------------------|
D|----------------------------|----------------------------|
A|--1--1--1--1--1--1--1--1----|----------------------------|
E|----------------------------|--3--3--3--3--3--3--3--3----|

G|----------------------------|----------------------------|
D|----------------------------|----------------------------|
A|--3--3--3--3--3--3--3--3----|--5--5--5--5--5--5--5--5----|
E|----------------------------|----------------------------|

G|----------------------------|----------------------------|
D|----------------------------|----------------------------|
A|--1--1--1--1--1--1--1--1----|----------------------------|
E|----------------------------|--3--3--3--3--3--3--3--3----|

G|----------------------------|----------------------------|
D|----------------------------|----------------------------|
A|--3--3--3--3--3--3--3--3----|--5--5--5--5--5--5--5--5----|
E|----------------------------|----------------------------|

G|----------------------------|----------------------------|
D|----------------------------|----------------------------|
A|--1--1--1--1--1--1--1--1----|----------------------------|
E|----------------------------|--3--3--3--3--3--3--3--3----|

G|----------------------------|----------------------------|
D|----------------------------|----------------------------|
A|--3--3--3--3--3--3--3--3----|--5--5--5--5--5--5--5--5----|
E|----------------------------|----------------------------|

G|----------------------------|----------------------------|
D|----------------------------|----------------------------|
A|--1--1--1--1--1--1--1--1----|----------------------------|
E|----------------------------|--3--3--3--3--3--3--3--3----|

G|----------------------------|-------|-------|-------|-------||
D|----------------------------|-------|-------|-------|-------||
A|--3--3--3--3--3--3--3--3----|-------|-------|-------|-------||
E|----------------------------|-------|-------|-------|-------||


************************************

| ~  Vibrato
| s  Slide
| M  Palm mute

************************************
Suggest correction
comments
print report bad tab
8 comments total. Showing first comments. show 1 bad comment
0 reply
MLM10492 1,138 Feb 08, 2013 03:28 PM

Hey everyone! Here's my cover video to help give you a visual of my tab!

http://www.youtube.com/watch?v=HDZbF4qRl_o

0 reply
Sam Rulez D00d 928 Feb 13, 2013 06:12 PM

The palm-muted chords in the verses aren't power chords.
They're these:
|---------|
|---------|
|---------|
|-3---0---|
|-5---1---|
|---------|
Also, the guitar in the second chorus is this:
|-----------------------------------------------------------------|
|-5-6-6-6-6-6-6-6-5-6-6-6-6-6-6-6-5-6-6-6-6-6-6-6-6-5-5-5-5-5-5-5-|
|-5-7-7-7-7-7-7-7-5-7-7-7-7-7-7-7-5-7-7-7-7-7-7-7-7-5-5-5-5-5-5-5-|
|-----------------------------------------------------------------|
|-----------------------------------------------------------------|
|-----------------------------------------------------------------|

I rated your tab low because of this. I didn't think it deserved 5 stars because it's not perfect.
You didn't have to go and destroy all my tabs' ratings because of it. That's just not cool. If you can honestly tell me what I did wrong in my tabs then by all means go ahead, but don't just rate poorly because you're mad.

guest
You may want to rate the tab now too:
select rating
Wanna post a correction for this tab? Suggest correction