Oops, an error
Loading. Please wait.

Novocaine Tab

version 2
version 2

Intro

  • Mine is different because i learn from a youtuber ... Show more

Interactive

49 views 6 this week
no commentswrite comment
1 2 3 4 5
3 more votes to show rating
add to favorites
launch autoscroll
font size
0
reset
how to read this tab
guitar tuner
Autoscroll
slow
fast
+/-
esc
set tempo
stop
Help us to improve Ultimate-Guitar.com Take our survey!
×
Author
Difficulty
intermediate
About this tab version
Mine is different because i learn from a youtuber and give hime credit to what i tab. Was this info helpful? Yes No
[Intro]

e|-----------------------------------------------------------------------------------------------|
B|-----------------------------------------------------------------------------------------------|
G|-----------------------------------------------------------------------------------------------|
D|-----------------------------------------------------------------------------------------------|
A|-----------------------------------------------------------------------------------------------|
E|----0-0-3--3-5-3-------0-0-0-3--3-5-3----0-0-3-3-5-3---0--0-0-3--3-5----3----------------------|

e|-----------------------------------------------------------------------------------------------|
B|----------------------------1-1---1--1-1-1-1-1-------------------------------------------------|
G|-----------------------------------------------------------------------------------------------|
D|---2-2-2-2---2--2-2-2-------2-2---2--2-2-2-2-2--------2-2----2-2-------------------------------|
A|---2-2-2-2---2--2-2-2-------3-3---3--3-3-3-3-3--------2-2----2-2-------------------------------|
E|--------------------------------------------------------------------3-3----5-3-----------------|
                         
Credits to TheMaxGuitarLessons. 

May update if i ever have time.
Suggest correction
Give kudos to tab author, rate the tab!
1 2 3 4 5
comments
print report bad tab
guest
You may want to rate the tab now too:
select rating
Wanna post a correction for this tab? Suggest correction