Oops, an error
Loading. Please wait.

One And Only bass

version 1
version 1

Whole song

Interactive

621 views 1 this week
no commentswrite comment
1 2 3 4 5
3 more votes to show rating
add to favorites
×
Save as Personal and add changes to this tab that will be seen only by you. Learn more ›
×
You can save this tab as Personal to edit and correct it or add notes. All changes will be seen only by you. Learn more »
launch autoscroll
font size
0
reset
guitar tuner
edit
Autoscroll
slow
fast
+/-
esc
set tempo
stop
Author
Difficulty
-------------------------------------------------------------------------------
			     One and Only - Fall Out Boy
-------------------------------------------------------------------------------

Tabbed By : Beato413
Tuning: Standard or Drop D (Don't matter to me)

The live version has slides and the studio is longer so i combined them.
I tabbed this on an acoustic so it might not sound exactly right.

Verse: Bass comes in at 0:09, hold the notes for a second and then slide.
G|------------------------------------------------|
D|------------------------------------------------|
A|7\----7\----7\----7\----7\----7\----7\----7\----|
E|------------------------------------------------|

Chorus #1: Repeat four times.
G|--------------------------------------|
D|--------------------------------------| X4
A|2222222222----------------------------|
E|----------3333333333000000000000000000|

Verse: Starts at 1:15, hold the notes for a second and then slide.
G|------------------------------------------------|
D|------------------------------------------------|
A|7\----7\----7\----7\----7\----7\----7\----7\----|
E|------------------------------------------------|

Chorus #2:Repeat three times
G|--------------------------------------|
D|--------------------------------------| X3
A|2222222222----------------------------|
E|----------3333333333000000000000000000|

After Chorus #2: Hold the notes
G|----------------------------------------|
D|----------------------------------------|
A|2---------------------------------------|
E|-----3----0-----------------------------|

Verse: Starts at 2:21, hold the notes for a second and then slide.
G|-----------------------------------------------------|
D|-----------------------------------------------------|
A|7\2----7\2----7\2----7\2----7\2----7\2----7\2----7\2-|
E|-----------------------------------------------------|

Chorus #3:Repeat four times
G|--------------------------------------|
D|--------------------------------------| X4
A|2222222222----------------------------|
E|----------3333333333000000000000000000|

Outro #1: 
G|--------------------|
D|--------------------|
A|7----7----7----7----|
E|--------------------|

Outro #2: Hold all of the notes
G|---------------|
D|---------------|
A|2--------------|
E|-----3----0----|

Outro #3: Hold all notes except for the "1"
G|----------------|
D|----------------|
A|2---------1-----|
E|-----3-----0----|

Outro #4: Hold all of the notes
G|---------------|
D|---------------|
A|2--------------|
E|-----3----0----|

Outro #4: Hold all notes except for the "1"
G|----------------|
D|----------------|
A|2---------1-----|
E|-----3-----0----|

| /  slide up
| \  slide down
| h  hammer-on
| p  pull-off
| ~  vibrato
| +  harmonic
| x  Mute note
===============================================================================

            
            
Suggest correction
Creating personal tab
Creating personal tab
You can edit any tab online and save it as your Personal.

You can edit, replace or remove any tab part or add personal notes – all changes will be seen only by you.

Personal tabs can be accessed anytime from any device, even offline.
Learn more »
Give kudos to tab author, rate the tab!
1 2 3 4 5
comments
print report bad tab
guest
You may want to rate the tab now too:
select rating
Wanna post a correction for this tab? Suggest correction