Oops, an error
Loading. Please wait.

Parker Lewis Cant Lose Bass Tab

version 1
version 1

Whole song

Interactive

10 views 1 this week
no commentswrite comment
1 2 3 4 5
3 more votes to show rating
add to favorites
launch autoscroll
font size
0
reset
guitar tuner
Autoscroll
slow
fast
+/-
esc
set tempo
stop
Help us to improve Ultimate-Guitar.com Take our survey!
×
Author
Difficulty
Tuning
intermediate
D A D G B E
[Intro]

G|-------------------------------------------------------------------------------------|
D|-------------------------------------------------------------------------------------|
A|-----5-----5-----3-----3-----1-----1-----3-----3-----5-----5-----3-----3-----1-----1-|
D|-3-3---3-3---3-3---3-3---1-1---1-1---1-1---1-1---3-3---3-3---3-3---3-3---1-1---1-1---|

G|-------------------------------------------------------------------------------------|
D|------------------5-------5-------5-------5-------5-------5-------5-------5----------|
A|-----3-----3---------------------------------------------------------------------5---|
D|-1-1---1-1---3-3-----3-3-----3-3-----3-3-----3-3-----3-3-----3-3-----3-3-----3-3---3-|

G|-------------------------------------------------------------------------------------|
D|-------------------------------------------------------------------------------------|
A|---5-----3-----3-----1-----1-----3-----3-----5-----5-----3-----3-----1-----1-----3---|
D|-3---3-3---3-3---1-1---1-1---1-1---1-1---3-3---3-3---3-3---3-3---1-1---1-1---1-1---1-|

G|-------------------------------------------------------------------------------------|
D|----------5-------5-------5-------5-------5-------5-------5-------5------------------|
A|---3---------------------------------------------------------------------------------|
D|-1---3-3-----3-3-----3-3-----3-3-----3-3-----3-3-----3-3-----3-3---------------------|

[First Verse] 

G|-------------------------------------------------------------------------------------|
D|-------------------------------------------------------------------------------------|
A|------------------------------------------------------------3-3-3-3-3-3-3-3----------|
D|-6-6-6-6-6-6-6-6--10-10-10-10-10-10-10-10--3-3-3-3-3-3-3-3-------------------6-6-6-6-|

G|-------------------------------------------------------------------------------------|
D|-------------------------------------------------------------------------------------|
A|----------------------------------------------------3-3-3-3-3-3-3-3------------------|
D|-6-6-6-6--10-10-10-10-10-10-10-10--3-3-3-3-3-3-3-3-----------------------------------|

[Pre-Chorus]

G|-------------------------------------------------------------------------------------|
D|-------------------------------------------------------------------------------------|
A|--------------------------------------3-3-3-3-3-3-3-3-----------------3-3-3-3-3-3-3-3|
D|-10-10-10-10-10-10-10\3-3-3-3-3-3-3-3-----------------3-3-3-3-3-3-3-3----------------|

G|-------------------------------------------------------------------------------------|
D|-------------------------------------------------------------------------------------|
A|-----------------3-3-3-3-3-3-3-3--3--2--3--5~----------------------------------------|
D|-3-3-3-3-3-3-3-3---------------------------------------------------------------------|

[Chorus] 

G|-------------------------------------------------------------------------------------|
D|-------------------------------------------------------------------------------------|
A|-------------------7-7--7--5-5--5h7--------------------7-7--7--5-5--5h7--------------|
D|-6-6-6--10-10--10--------------------6-6-6--10-10--10--------------------6-6-6--10-10|

G|-------------------------------------------------------------------------------------|
D|-------------------------------------------------------------------------------------|
A|-----7-7--7--5-5--5h7----------------------------------------------------------------|
D|-10----------------------------------------------------------------------------------|

[Post Chorus]

G|-------------------------------------------------------------------------------------|
D|-------------------------------------------------------------------------------------|
A|-3~----------------------------------------------------------------------------------|
D|-------------------------------------------------------------------------------------|

[Pre-Verse]

G|-------------------------------------------------------------------------------------|
D|-------------------------------------------------------------------------------------|
A|-----5-----5-----3-----3-----1-----1-----3-----3-----5-----5-----3-----3-----1-----1-|
D|-3-3---3-3---3-3---3-3---1-1---1-1---1-1---1-1---3-3---3-3---3-3---3-3---1-1---1-1---|

G|-------------------------------------------------------------------------------------|
D|------------------5-------5-------5-------5-------5-------5-------5-------5----------|
A|-----3-----3---------------------------------------------------------------------5---|
D|-1-1---1-1---3-3-----3-3-----3-3-----3-3-----3-3-----3-3-----3-3-----3-3-----3-3---3-|

G|-------------------------------------------------------------------------------------|
D|-------------------------------------------------------------------------------------|
A|---5-----3-----3-----1-----1-----3-----3-----5-----5-----3-----3-----1-----1-----3---|
D|-3---3-3---3-3---1-1---1-1---1-1---1-1---3-3---3-3---3-3---3-3---1-1---1-1---1-1---1-|

G|-------------------------------------------------------------------------------------|
D|----------5-------5-------5-------5-------5-------5-------5-------5------------------|
A|---3---------------------------------------------------------------------------------|
D|-1---3-3-----3-3-----3-3-----3-3-----3-3-----3-3-----3-3-----3-3---------------------|

[Second Verse]

G|-------------------------------------------------------------------------------------|
D|-------------------------------------------------------------------------------------|
A|------------------------------------------------------------3-3-3-3-3-3-3-3----------|
D|-6-6-6-6-6-6-6-6--10-10-10-10-10-10-10-10--3-3-3-3-3-3-3-3-------------------6-6-6-6-|

G|-------------------------------------------------------------------------------------|
D|-------------------------------------------------------------------------------------|
A|----------------------------------------------------3-3-3-3-3-3-3-3------------------|
D|-6-6-6-6--10-10-10-10-10-10-10-10--3-3-3-3-3-3-3-3-----------------------------------|

[Pre-Chorus]

G|-------------------------------------------------------------------------------------|
D|-------------------------------------------------------------------------------------|
A|-----------------------------------------3-3-3-3-3-3-3-3-----------------3-3-3-3-3-3-|
D|-10-10-10-10-10-10-10-10\3-3-3-3-3-3-3-3-----------------3-3-3-3-3-3-3-3-------------|

G|-------------------------------------------------------------------------------------|
D|-------------------------------------------------------------------------------------|
A|-3h5---------------------3-3-3-3-3-3-3-3--3--2--3--5~--------------------------------|
D|-----3-3-3-3-3-6-6-10-10-------------------------------------------------------------|

[Chorus]

G|-------------------------------------------------------------------------------------|
D|-------------------------------------------------------------------------------------|
A|-------------------7-7--7--5-5--5h7--------------------7-7--7--5-5--5h7--------------|
D|-6-6-6--10-10--10--------------------6-6-6--10-10--10--------------------6-6-6--10-10|

G|-------------------------------------------------------------------------------------|
D|-------------------------------------------------------------------------------------|
A|-----7-7--7--5-5--5h7----------------------------------------------------------------|
D|-10----------------------------------------------------------------------------------|

[Post Chorus]

G|-------------------------------------------------------------------------------------|
D|-------------------------------------------------------------------------------------|
A|-3~-----------------------------3--2--3--5~------------------------------------------|
D|-------------------------------------------------------------------------------------|

[Bridge]

G|-------------------------------------------------------------------------------------|
D|-------------------------------------------------------------------------------------|
A|------------3-3-3-3-x--7-7-7-7-x--5-5-5-5-x-------------3-3-3-3-x--7-7-7-7-x--5-5-5-5|
D|-6-6-6-6-x-----------------------------------6-6-6-6-x-------------------------------|

G|-------------------------------------------------------------------------------------|
D|-------------------------------------------------------------------------------------|
A|-x-----------3-3-3-3~--7-7-7-7~--5-5-5-5~------------3-3-3-3~--7-7-7-7~-5-5-5-5~-----|
D|---6-6-6-6~--------------------------------6-6-6-6~----------------------------------|

[Outro]

G|-------------------------------------------------------------------------------------|
D|-------------------------------------------------------------------------------------|
A|------------------3-3-3-3-3-3-3-3--7-7-7-7-7-7-7-7--5-5-5-5-5-5-5-5------------------|
D|-6-6-6-6-6-6-6-6-----------------------------------------------------6-6-6-6-6-6-6-6-|

G|-------------------------------------------------------------------------------------|
D|-------------------------------------------------------------------------------------|
A|-3-3-3-3-3-3-3-3--7-7-7-7-7-7-7-7--5-5-5-5-5-5-5-5-----------------------------------|
D|----------------------------------------------------6-6-6-6-x------------------------|

************************************

| x   Dead note
| h   Hammer-on
| \   Slide down
| ~   Vibrato

************************************
Suggest correction
Give kudos to tab author, rate the tab!
1 2 3 4 5
comments
print report bad tab
guest
You may want to rate the tab now too:
select rating
Wanna post a correction for this tab? Suggest correction