Oops, an error
Loading. Please wait.

Rat A Tat Tab

version 1
version 1

Whole song

Interactive

7,579 views 12 this week
no commentswrite comment
1 2 3 4 5
x 4
add to favorites
launch autoscroll
font size
0
reset
how to read this tab
guitar tuner
Autoscroll
slow
fast
+/-
esc
set tempo
stop
Help us to improve Ultimate-Guitar.com Take our survey!
×
Author
Difficulty
intermediate
-----------------------------------------------------------------------------
                             RAT A TAT - Fall Out Boy
-----------------------------------------------------------------------------
Tabbed by:Tyler Thornes
E-mail:tjthornes@Umes.edu

Tuning:Standard

Intro:
Use these notes, you'll have to figure out the rhythm. =D
e|--------------------------------------------------------------------|
B|--------------------------------------------------------------------|
G|-10--8--|--12--10---------------------------------------------------|
D|-8---8--|--8---8----------------------------------------------------|
A|--------------------------------------------------------------------|
E|--------------------------------------------------------------------|

Clean Part
e|--------------------------------------------------------------|
B|--------------------------------------------------------------|
G|-------12----------12-----------------------------------------|
D|----13----13----13--------------------------------------------|
A|-15----------15-----------------------------------------------|
E|--------------------------------------------------------------|

Then do the Intro part again, but don't do the very last part of it.

Chorus:The hammer on is barely audible and it's right before you move to the next chord 
but it's there.  Also if you'd prefer you can play the 8/10/10 on the A String as 3/5/5.
e|-------------------------------------------------------------------|
B|-------------------------------------------------------------------|
G|-8-----------------------------------------------------------------|
D|-8---8----10--6---10--6--------------------------------------------|
A|-6---8----10--6---10--6--------------------------------------------|
E|-----6h8--8---4---8---4--------------------------------------------|

Bridge:
e|---------------------------------------------------------------------|
B|---------------------------------------------------------------------|
G|--17-17-17-15-15-15-12-12-12-10-10-10-8-8---------10p8---------------|
D|------------------------------------------10-10p8--------------------|
A|---------------------------------------------------------------------|
E|---------------------------------------------------------------------|
For this it sounds best if you have an amp setting for no bass and mid.
e|-------------------------------------------------------------------|
B|-------------------------------------------------------------------|
G|-------------------------------------------------------------------|
D|-------------------------------------------------------------------|
A|-6t----------6t----------------------------------------------------|
E|----6t-8t-4t----6t-8t-4t-------------------------------------------|

Chorus
First Part of Bridge
Enjoy!
If you notice anything wrong, let me know.

************************************

| /   slide up
| \   slide down
| h   hammer-on
| p   pull-off
| ~   vibrato
| +   harmonic
| x   Mute note
| b   Bend
| pb  Pre-bend
| br  Bend release
| pbr Pre-bend release
| brb Bend release bend

************************************
Suggest correction
comments
print report bad tab
guest
You may want to rate the tab now too:
select rating
Wanna post a correction for this tab? Suggest correction