Oops, an error
Loading. Please wait.

Rat A Tat bass

version 3
version 3

Whole song

Interactive

25 views 3 this week
no commentswrite comment
1 2 3 4 5
3 more votes to show rating
add to favorites
×
Save as Personal and add changes to this tab that will be seen only by you. Learn more ›
×
You can save this tab as Personal to edit and correct it or add notes. All changes will be seen only by you. Learn more »
launch autoscroll
font size
0
reset
guitar tuner
edit
Autoscroll
slow
fast
+/-
esc
set tempo
stop
This is based on Alto Fox's cover...

https://www.youtube.com/watch?v=DxTEs25NuuU

[Intro]
(0:05)
G|-------|
D|-------|
A|-------|
E|--12/--|

G|-----------------------------------------------------------------|
D|-----------------------------------------------------------------|
A|-3-3-3-3-3-3-3-3-3-3-3-3-3-3-3-3-6-6-6-6-6-6-6-6-6-6-6-6-6-6--8/-|
E|-----------------------------------------------------------------|

G|----------------------------------------------------------------|
D|----------------------------------------------------------------|
A|-3-3-3-3-3-3-3-3-3-3-3-3-3-3--1\-6-6-6-6-6-6-6-6-6-6-6-6-6-6--8-|
E|----------------------------------------------------------------|

[Verse 1]
(0:20)
G|-----------------------------------------------------------------|
D|-----------------------------------------------------------------|
A|-3-3-3-3-3-3-3-3-3-3-3-3-3-3-3-3-3-3-3-3-3-3-3-3-3-3-3-3-3-3-3-3-|
E|-----------------------------------------------------------------|

G|-----------------------------------------------------------------|
D|-----------------------------------------------------------------|
A|-----------------------------------------------------------------|
E|-3-3-3-3-3-3-3-3-4-4-4-4-4-4-4-4-3-3-3-3-3-3-3-3-1-1-1-1-1-1-1-1-|

G|-----------------------------------------------------------------|
D|-----------------------------------------------------------------|
A|-3-3-3-3-3-3-3-3-3-3-3-3-3-3-3-3-3-3-3-3-3-3-3-3-3-3-3-3-3-3-3-3-|
E|-----------------------------------------------------------------|

G|-----------------------------------------------------------------|
D|-----------------------------------------------------------------|
A|-----------------------------------------------------------------|
E|-3-3-3-3-3-3-3-3-4-4-4-4-4-4-4-4-3-3-3-3-3-3-3-3-1-1-1-1-1-1-1-1-|

[Pre-Chorus]
(0:42)
G|----------------------------------------------------------------|
D|----------------------------------------------------------------|
A|----------------------------------------------------------------|
E|-4-4-4-4-4-4-4-4-4-4-4-4-4-4--6-8-8-8-8-8-8-8-8-8-8-8-8-8-8-8-8-|

G|---------------------------------|
D|---------------------------------|
A|---------------------------------|
E|-4-4-4-4-4-4-4-4-4-4-4-4-4-4--6/-|

[Chorus]
(0:53)
G|-------|
D|-------|
A|-------|
E|--12/--|

G|-----------------------------------------------------------------|
D|-----------------------------------------------------------------|
A|-6-6-6-6-6-6-6-6-6-6-6-6-6-6-6-6-1-1-1-1-1-1-1-1-1-1-1-1-1-1-1-1-|
E|-----------------------------------------------------------------|

G|-----------------|
D|-----------------|
A|-3-----6-6-6-6---|
E|----4----------4-|

G|-------------------------------------------------------------------|
D|-------------------------------------------------------------------|
A|-4-6-6-6-6-6-6-6-6-6-6-6-6-6-6-6-6-1-1-1-1-1-1-1-1-1-1-1-1-1-1-1-1-|
E|-------------------------------------------------------------------|

G|----------------------|
D|----------------------|
A|-3----------6-6-6-6---|
E|----4-4-4-4---------4-|

[Refrain]
(1:16)
G|-----------------------------------------------------------------|
D|-----------------------------------------------------------------|
A|-3-3-3-3-3-3-3-3-3-3-3-3-3-3--1\-6-6-6-6-6-6-6-6-6-6-6-6-6-6--8/-|
E|-----------------------------------------------------------------|

G|----------------------------------------------------------------|
D|----------------------------------------------------------------|
A|-3-3-3-3-3-3-3-3-3-3-3-3-3-3--1\-6-6-6-6-6-6-6-6-6-6-6-6-6-6--8-|
E|----------------------------------------------------------------|

[Verse 2]
(1:30)
G|-------|
D|-------|
A|-------|
E|--12/--|

G|-----------------------------------------------------------------|
D|-----------------------------------------------------------------|
A|-3-3-3-3-3-3-3-3-3-3-3-3-3-3-3-3-3-3-3-3-3-3-3-3-3-3-3-3-3-3-3-3-|
E|-----------------------------------------------------------------|

G|-----------------------------------------------------------------|
D|-----------------------------------------------------------------|
A|-----------------------------------------------------------------|
E|-3-3-3-3-3-3-3-3-4-4-4-4-4-4-4-4-3-3-3-3-3-3-3-3-1-1-1-1-1-1-1-1-|

G|-----------------------------------------------------------------|
D|-----------------------------------------------------------------|
A|-3-3-3-3-3-3-3-3-3-3-3-3-3-3-3-3-3-3-3-3-3-3-3-3-3-3-3-3-3-3-3-3-|
E|-----------------------------------------------------------------|

G|-----------------------------------------------------------------|
D|-----------------------------------------------------------------|
A|-----------------------------------------------------------------|
E|-3-3-3-3-3-3-3-3-4-4-4-4-4-4-4-4-3-3-3-3-3-3-3-3-1-1-1-1-1-1-1-1-|

[Pre-Chorus]
(1:53)
G|----------------------------------------------------------------|
D|----------------------------------------------------------------|
A|----------------------------------------------------------------|
E|-4-4-4-4-4-4-4-4-4-4-4-4-4-4--6-8-8-8-8-8-8-8-8-8-8-8-8-8-8-8-8-|

G|---------------------------------|
D|---------------------------------|
A|---------------------------------|
E|-4-4-4-4-4-4-4-4-4-4-4-4-4-4--6/-|

[Chorus]
(2:04)
G|-------|
D|-------|
A|-------|
E|--12/--|

G|-----------------------------------------------------------------|
D|-----------------------------------------------------------------|
A|-6-6-6-6-6-6-6-6-6-6-6-6-6-6-6-6-1-1-1-1-1-1-1-1-1-1-1-1-1-1-1-1-|
E|-----------------------------------------------------------------|

G|-----------------|
D|-----------------|
A|-3-----6-6-6-6---|
E|----4----------4-|

G|-------------------------------------------------------------------|
D|-------------------------------------------------------------------|
A|-4-6-6-6-6-6-6-6-6-6-6-6-6-6-6-6-6-1-1-1-1-1-1-1-1-1-1-1-1-1-1-1-1-|
E|-------------------------------------------------------------------|

G|----------------------|
D|----------------------|
A|-3----------6-6-6-6---|
E|----4-4-4-4---------4-|

[Interlude]
(2:27)
G|-----------------------------------------------------------------|
D|-----------------------------------------------------------------|
A|-3-3-3-3-3-3-3-3-3-3-3-3-3-3-3-3-3-3-3-3-3-3-3-3-3-3-3-3-3-3-3-3-|
E|-----------------------------------------------------------------|

G|-----------------------------------------------------------------|
D|-----------------------------------------------------------------|
A|-----------------------------------------------------------------|
E|-3-3-3-3-3-3-3-3-4-4-4-4-4-4-4-4-3-3-3-3-3-3-3-3-1-1-1-1-1-1-1-1-|

G|-----------------------------------------------------------------|
D|-----------------------------------------------------------------|
A|-3-3-3-3-3-3-3-3-3-3-3-3-3-3-3-3-3-3-3-3-3-3-3-3-3-3-3-3-3-3-3-3-|
E|-----------------------------------------------------------------|

G|-----------------------------------------------------------------|
D|-----------------------------------------------------------------|
A|-----------------------------------------------------------------|
E|-3-3-3-3-3-3-3-3-4-4-4-4-4-4-4-4-3-3-3-3-3-3-3-3-1-1-1-1-1-1-1-1-|

[Bridge]
(2:50)
(NO BASS DURING BRIDGE)

[Chorus 2]
(3:18)
G|-----------------|
D|-----------------|
A|-3-----6-6-6-6---|
E|----4----------4-|

G|-------------------------------------------------------------------------|
D|-------------------------------------------------------------------------|
A|-4-4-4-4-6-6-6-6-6-6-6-6-6-6-6-6-6-6-6-6-1-1-1-1-1-1-1-1-1-1-1-1-1-1-1-1-|
E|-------------------------------------------------------------------------|

G|-------------------------------------------------|
D|-------------------------------------------------|
A|-3-3-3-3-----------------6-6-6-6-----------------|
E|---------4-4-4-4-4-4-4-4---------4-4-4-4-4-4-4-4-|

[Outro]
(3:35)
G|-----------------------------------------------------------------|
D|-----------------------------------------------------------------|
A|-3-3-3-3-3-3-3-3-3-3-3-3-3-3-3-3-3-3-3-3-3-3-3-3-3-3-3-3-3-3-3-3-|
E|-----------------------------------------------------------------|

G|-----------------------------------------------------------------|
D|-----------------------------------------------------------------|
A|-----------------------------------------------------------------|
E|-3-3-3-3-3-3-3-3-4-4-4-4-4-4-4-4-3-3-3-3-3-3-3-3-1-1-1-1-1-1-1-1-|

G|-----------------------------------------------------------------|
D|-----------------------------------------------------------------|
A|-3-3-3-3-3-3-3-3-3-3-3-3-3-3-3-3-3-3-3-3-3-3-3-3-3-3-3-3-3-3-3-3-|
E|-----------------------------------------------------------------|

G|----------------------------------------------------------------------|
D|----------------------------------------------------------------------|
A|----------------------------------------------------------------------|
E|-3-3-3-3-3-3-3-3-4-4-4-4-4-4-4-4-3-3-3-3-3-3-3-3-1-1-1-1-1-1-1-1----3-|


************************************

| /   Slide up
| \   Slide down

************************************

            
            
Suggest correction
Creating personal tab
Creating personal tab
You can edit any tab online and save it as your Personal.

You can edit, replace or remove any tab part or add personal notes – all changes will be seen only by you.

Personal tabs can be accessed anytime from any device, even offline.
Learn more »
Give kudos to tab author, rate the tab!
1 2 3 4 5
comments
print report bad tab
guest
You may want to rate the tab now too:
select rating
Wanna post a correction for this tab? Suggest correction