Oops, an error
Loading. Please wait.

Saturday tab

version 3
version 3

Whole song

Interactive

1,099 views 1 this week
3 commentsread comments
1 2 3 4 5
x 4
add to favorites
×
Save as Personal and add changes to this tab that will be seen only by you. Learn more ›
×
You can save this tab as Personal to edit and correct it or add notes. All changes will be seen only by you. Learn more »
launch autoscroll
font size
0
reset
how to read this tab
guitar tuner
edit
Autoscroll
slow
fast
+/-
esc
set tempo
stop
Fall Out Boy – Saturday
( there weren’t many accurate tabs of this song; it’s a great album and a great band – 
and please rate )

Verse 1
E|-----------------------------------------------------------------------------------|
B|-----------------------------------------------------------------------------------|
G|-----------------4-4-4-4-4-4-4-4-------------6-6-6-6-6-6-6-6-----------------------|
D|-6-6-6-6-6-6-6-6-4-4—4-4-4-4-4-4-2--22-22-22-6-6-6-6-6-6-6-6-----------------------|
A|-6-6-6-6-6-6-6-6-2-2-2-2-2-2-2-2-2--22-22-22-4-4-4-4-4-4-4-4-----------------------|
E|-4-4-4-4-4-4-4-4-----------------0--00-00-00---------------------------------------|

E|-----------------------------------------------------------------------------------|
B|-----------------------------------------------------------------------------------|
G|----------------------33-4-4-4-4-9-9-9-9-9-9-9-9-9-9-9-9-9-9-9---------------------|
D|-2-2-2-2-2-2-2-2--66--33-4-4-4-4-9-9-9-9-9-9-9-9-9-9-9-9-9-9-9---------------------|
A|-2-2-2-2-2-2-2-2--66--11-2-2-2-2-7-7-7-7-7-7-7-7-7-7-7-7-7-7-7---------------------|
E|-0-0-0-0-0-0-0-0--44---------------------------------------------------------------|

E|-----------------------------------------------------------------------------------|
B|-----------------------------------------------------------------------------------|
G|-------------------44---------44-66---------66-----------------------6\4-----------|
D|-22-66----------66-44---------44-66---------66-22-----------X2---4-6-4\2-----------|
A|-22-66----------66-22---------22-44---------44-22----------------4-6-4\2-----------|
E|-00-44----------44-----------------------------00----------------2-4---0-----------|

Chorus
E|-----------------------------------------------------------------------------------|
B|-----------------------------------------------------------------------------------|
G|-8-8-8-8-8-8-8-8-------------------------1-1-1-1-----------------------------------|
D|-9-9-9-9-9-9-9-9-9-9-9-9-9-9-9-9-6-6-6-6-2-2-2-2-----------------------------------|
A|-9-9-9-9-9-9-9-9-9-9-9-9-9-9-9-9-6-6-6-6-2-2-2-2-----------------------------------|
E|-7-7-7-7-7-7-7-7-6-6-6-6-6-6-6-6-4-4-4-4-0-0-0-0-----------------------------------|

E|-----------------------------------------------------------------------------------|
B|-----------------------------------------------------------------------------------|
G|-8-8-8-8-8-8-8-8-----------------6-6-6-6-9-9-9-9-----------------------------------|
D|-9-9-9-9-9-9-9-9-9-9-9-9-9-9-9-9-6-6-6-6-9-9-9-9-----------------------------------|
A|-9-9-9-9-9-9-9-9-9-9-9-9-9-9-9-9-4-4-4-4-7-7-7-7-----------------------------------|
E|-7-7-7-7-7-7-7-7-6-6-6-6-6-6-6-6---------------------------------------------------|

E|-----------------------------------------------------------------------------------|
B|-----------------------------------------------------------------------------------|
G|-8-8-88--------------------------6-6-6-6-9-9-9-9-----------------------------------|
D|-9-9-99----------9-9-99----------6-6-6-6-9-9-9-9--------X2-------------------------|
A|-9-9-99----------9-9-99----------4-4-4-4-7-7-7-7-----------------------------------|
E|-7-7-77----------6-6-66------------------------------------------------------------|

Verse2
E|-----------------------------------------------------------------------------------|
B|-----------------------------------------------------------------------------------|
G|-----------------------------------------------------------------------------------|
D|-----------------------------------------------------------------------------------|
A|---------2~~~~~~~1~~~~~~~~~2~~~~~~~~~1~~~~~~~~-------------------------------------|
E|-4~~~~~~~--------------------------------------------------------------------------|

E|-----------------------------------------------------------------------------------|
B|---------------------------------------------------5-5-5-5-4-4-4-4-----------------|
G|-----------------4-4-4-4-4-4-4-4-4-6-6-6-6-6-6-6-6-4-4-4-4-4-4-4-4-----6\4---------|
D|-6-6-6-6-6-6-6-6-4-4-4-4-4-4-4-4-4-6-6-6-6-6-6-6-6-2-2-2-2-2-2-2-2-4-6-6\2---------|
A|-6-6-6-6-6-6-6-6-2-2-2-2-2-2-2-2-2-4-4-4-4-4-4-4-4-----------------4-6-4\2---------|
E|-4-4-4-4-4-4-4-4---------------------------------------------------2-4---0---------|
P.M. . . . . . . . . . . . . . . . . . . . . . . . . . . . . . . . .

Chorus
E|-----------------------------------------------------------------------------------|
B|-----------------------------------------------------------------------------------|
G|-8-8-8-8-8-8-8-8-------------------------1-1-1-1-----------------------------------|
D|-9-9-9-9-9-9-9-9-9-9-9-9-9-9-9-9-6-6-6-6-2-2-2-2-----------------------------------|
A|-9-9-9-9-9-9-9-9-9-9-9-9-9-9-9-9-6-6-6-6-2-2-2-2-----------------------------------|
E|-7-7-7-7-7-7-7-7-6-6-6-6-6-6-6-6-4-4-4-4-0-0-0-0-----------------------------------|

E|-----------------------------------------------------------------------------------|
B|-----------------------------------------------------------------------------------|
G|-8-8-8-8-8-8-8-8-----------------6-6-6-6-9-9-9-9-----------------------------------|
D|-9-9-9-9-9-9-9-9-9-9-9-9-9-9-9-9-6-6-6-6-9-9-9-9-----------------------------------|
A|-9-9-9-9-9-9-9-9-9-9-9-9-9-9-9-9-4-4-4-4-7-7-7-7-----------------------------------|
E|-7-7-7-7-7-7-7-7-6-6-6-6-6-6-6-6---------------------------------------------------|

E|-----------------------------------------------------------------------------------|
B|-----------------------------------------------------------------------------------|
G|-8-8-88--------------------------6-6-6-6-9-9-9-9-----------------------------------|
D|-9-9-99----------9-9-99----------6-6-6-6-9-9-9-9--------X2-------------------------|
A|-9-9-99----------9-9-99----------4-4-4-4-7-7-7-7-----------------------------------|
E|-7-7-77----------6-6-66------------------------------------------------------------|

Verse3
E|-----------------------------------------------------------------------------------|
B|-----------------------------------------------------------------------------------|
G|-8~~~~~~~~~~~~~~~~~~~~1~~~~~~~~3~~~~~~~~~~~~~~8~~~~~~~~1~~~~~~3~~~~~~~~~~~~~8~~~~~-|
D|-9~~~~~~~~~~~~~~~~~~~-2~~~~~~~~4~~~~~~6~~~~~~~9~~~~~~~~2~~~~~~4~~~~~~6~~~~~~9~~~~~-|
A|-9~~~~~~~~~~~~~~~~~~~-2~~~~~~~~4~~~~~~6~~~~~~~9~~~~~~~~2~~~~~~4~~~~~~6~~~~~~9~~~~~-|
E|-7~~~~~~~~~~~~~~~~~~~-0~~~~~~~~2~~~~~~4~~~~~~~7~~~~~~~~0~~~~~~2~~~~~~4~~~~~~7~~~~~-|

E|-----------------------------------------------------------------------------------|
B|-----------------------------------------------------------------------------------|
G|-11111111-33333333----------88888888-11111111-33333333----------88888888-----------|
D|-22222222-44444444-66666666-99999999-22222222-44444444-66666666-99999999—-X2-------|
A|-22222222-44444444-66666666-99999999-22222222-44444444-66666666-99999999-----------|
E|-00000000-22222222-44444444-77777777-00000000-22222222-44444444-77777777-----------|

Chorus
E|-----------------------------------------------------------------------------------|
B|-----------------------------------------------------------------------------------|
G|-8-~~~~~~~~~~~~~~~~~~~~~~~~~~~~~---------1-1-1-1-----------------------------------|
D|-9-~~~~~~~~~~~~~~~~~~~~~~~~~~~~~-6-6-6-6-2-2-2-2-----------------------------------|
A|-9-~~~~~~~~~~~~~~~~~~~~~~~~~~~~~-6-6-6-6-2-2-2-2-----------------------------------|
E|-7-~~~~~~~~~~~~~~~~~~~~~~~~~~~~~-4-4-4-4-0-0-0-0-----------------------------------|

E|-----------------------------------------------------------------------------------|
B|-----------------------------------------------------------------------------------|
G|-8-8-8-8-8-8-8-8-----------------6-6-6-6-9-9-9-9-----------------------------------|
D|-9-9-9-9-9-9-9-9-9-9-9-9-9-9-9-9-6-6-6-6-9-9-9-9-----------------------------------|
A|-9-9-9-9-9-9-9-9-9-9-9-9-9-9-9-9-4-4-4-4-7-7-7-7-----------------------------------|
E|-7-7-7-7-7-7-7-7-6-6-6-6-6-6-6-6---------------------------------------------------|

E|-----------------------------------------------------------------------------------|
B|-----------------------------------------------------------------------------------|
G|-8-8-88--------------------------6-6-6-6-9-9-9-9---------------------6\4-----------|
D|-9-9-99----------9-9-99----------6-6-6-6-9-9-9-9--------X4-------4-6-6\2-----------|
A|-9-9-99----------9-9-99----------4-4-4-4-7-7-7-7-----------------4-6-4\2-----------|
E|-7-7-77----------6-6-66------------------------------------------2-4---0-----------|
Suggest correction
Creating personal tab
Creating personal tab
You can edit any tab online and save it as your Personal.

You can edit, replace or remove any tab part or add personal notes – all changes will be seen only by you.

Personal tabs can be accessed anytime from any device, even offline.
Learn more »
comments
print report bad tab
3 comments total.
0 reply
shugo449 530 Aug 19, 2006 04:12 AM

ur right great cd great band 5*

0 reply
SaintJimmy105 341 Aug 19, 2006 06:17 PM

Missing lead parts and alot of other things.

0 reply
aflippinlunitic 10 Jul 18, 2007 12:03 AM

alright but missin some things still has teh best chorus ive seen so far

guest
You may want to rate the tab now too:
select rating
Wanna post a correction for this tab? Suggest correction