Oops, an error
Loading. Please wait.

Save Rock And Roll Bass Tab

version 1
version 1

Whole song

6,948 views 3 this week
no commentswrite comment
1 2 3 4 5
x 7
add to favorites
launch autoscroll
font size
0
reset
guitar tuner
Autoscroll
slow
fast
+/-
esc
set tempo
stop
Help us to improve Ultimate-Guitar.com Take our survey!
×
Author
Difficulty
intermediate
Artist: Fall Out Boy
Bassist: Pete Wentz
Album: Save Rock and Roll
Tuning: Standard (EADG)

Intro/1st Verse (Come in with piano)
G|-----------------|
D|-----------2-----|
A|-------2----4--0-| x3
E|-0--2h4----------|

Pre-Chorus
G|-----------------------------|
D|-----------------------------|
A|-0--2-44-0---4---0--2-4-4-0--|
E|-----------4-----------------|

Chorus
G|--------------------------------------|
D|--------------------------------------|
A|---------2--(2)22--4--(4)44--0--(0)00-| x2
E|-0--(0)00-----------------------------|

Play Intro/1st Verse x1

2nd Verse
G|--------------------------|
D|--------------------------|
A|--------2--22-4--44-0--00-| x2
E|-/0--00-------------------|

Play Pre-Chorus x1

2nd Chorus
G|------------------------------------|
D|------------------------------2-----|
A|-------2--4-44-0-0---------2---4--0-|
E|-0--2h4------------0--2h4-----------|

Bridge no bass

Chorus 3 (Key Change)
G|--------------------------------------------------------|
D|--------------------------------------------------------|
A|---------3--(3)33--5--(5)55-1--(1)11--------3--5-55-1-1-|
E|-1--(1)11-----------------------------1--3h5------------|

Outro (Patrick and Elton are repeating the chorus) These are 10s (tens) and 12s 
(twelves) NOT 1s (ones), 0s (zeros), or 2s (twos).
G|--------------------|
D|-----10---12---/8---|
A|-8------------------| x3
E|--------------------|
Suggest correction
comments
print report bad tab
guest
You may want to rate the tab now too:
select rating
Wanna post a correction for this tab? Suggest correction