Oops, an error
Loading. Please wait.

Sophmore Slump Or Comeback Of The Year tab

version 1
version 1

Whole song

18,063 views 3 this week
6 commentsread comments
1 2 3 4 5
x 18
add to favorites
×
Save as Personal and add changes to this tab that will be seen only by you. Learn more ›
×
You can save this tab as Personal to edit and correct it or add notes. All changes will be seen only by you. Learn more »
launch autoscroll
font size
0
reset
how to read this tab
guitar tuner
edit
Autoscroll
slow
fast
+/-
esc
set tempo
stop
Author
Song: Sophomore Slump or Comeback Of The Year 
Band: Fall Out Boy

Tabbed By: Stephen Adams 
Tuning: EADGBe (standard)

* = palm mute 
/ = slide 
\ = slide 

the first two tabs for this song were pretty good but they left out parts and had
some mistakes. this should be right.


Intro (palm mute): 
e|-------------------------------------------------------------|
B|-------------------------------------------------------------|
G|-44444444-33333333---------------------44444444-33333333-----|
D|-44444444-44444444-22222222-6666-2222--44444444-44444444--2~-|
A|-22222222-11111111-22222222-6666-2222--22222222-11111111--2~-|
E|-------------------00000000-4444-0000---------------------0~-|


Verse 1: Guitar 1
e|------------------------|
B|------------------------|
G|------------4444--------|
D|-66-42-24—4-4444--------|x8
A|-66-42-24—4-2222--------|
E|-44-20-02-2-------------|


Verse 1: Guitar 2 (those are 11's and 12's, NOT 1's and 2's)
e|-------------------------------------|
B|-12121212-12-11-11-12121212----------|
G|-11111111-11-11-11-11111111----------|
D|-------------------------------------|x4
A|-------------------------------------|
E|-------------------------------------|


Pre Chorus (palm mute):
e|-----------------------------------------------|
B|-----------------------------------------------|
G|-------------------33333333-44444444-----------|
D|-22222222-44444444-44444444-44444444-----------|
A|-22222222-44444444-11111111-22222222-----------|
E|-00000000-22222222-----------------------------|


Pre Chorus Cont. (palm mute):
e|-----------------------------------------------|
B|-----------------------------------------------|
G|-------------------44444444-66666666-----------|
D|-22222222-44444444-44444444-66666666-----------|
A|-22222222-44444444-22222222-44444444-----------|
E|-00000000-22222222-----------------------------|


Chorus:
e|----------------------------------------|
B|----------------------------------------|
G|-44444444-33333333----------------------|
D|-44444444-44444444-22222222-6666-2222---|x2
A|-22222222-11111111-22222222-6666-2222---|
E|-------------------00000000-4444-0000---|


Pre Verse:
e|-------------------------|
B|-------------------------|
G|------------444-4--------|
D|-66-42-24—4-444-4--------|
A|-66-42-24—4-222-2--------|
E|-44-20-02-2--------------|
              ***

Verse 2: Guitar 1
e|---------------------------------|
B|---------------------------------|
G|-4-4/6/8—--8/11--11/8-8----------|
D|-x-x/x/x—--x/x---x-/x-x----------|x8
A|-2-2/4/6---6/9---9-/6-6----------|
E|---------------------------------|


Verse 2: Guitar 2 
e|------------------------|
B|------------------------|
G|------------4444--------|
D|-66-42-24—4-4444--------|x4
A|-66-42-24—4-2222--------|
E|-44-20-02-2-------------|


Verse 2: Guitar 3 (again, 11's and 12's)
e|-------------------------------------|
B|-12121212-12-11-11-12121212----------|
G|-11111111-11-11-11-11111111----------|
D|-------------------------------------|x4
A|-------------------------------------|
E|-------------------------------------|


Pre Chorus (palm mute):
e|-----------------------------------------------|
B|-----------------------------------------------|
G|-------------------44444444-66666666-----------|
D|-22222222-44444444-44444444-66666666-----------|
A|-22222222-44444444-22222222-44444444-----------|
E|-00000000-22222222-----------------------------|


Chorus:
e|----------------------------------------|
B|----------------------------------------|
G|-44444444-33333333----------------------|
D|-44444444-44444444-22222222-6666-2222---|x2
A|-22222222-11111111-22222222-6666-2222---|
E|-------------------00000000-4444-0000---|


After Second Chorus: "there's a drug in the..."
e|----------------------------------------|
B|----------------------------------------|
G|-44444444-33333333----------------------|
D|-44444444-44444444-22222222-6666-2222---|x2
A|-22222222-11111111-22222222-6666-2222---|
E|-------------------00000000-4444-0000---|


Brigde: 
e|--------------|
B|--------------|
G|-4~-----------|
D|-x~-----------|
A|-2~-----------|
E|--------------|
                 

Bridge Cont. "the best part of believe..."
e|---------------------------------------------|
B|---------------------------------------------|
G|-4--4-------------------22222222-------------|
D|-4—-4-x-alot---55555555-22222222-------------|
A|-2--2----------55555555-00000000-------------|
E|---------------33333333----------------------|
      *

Bridge Cont.
e|---------------------------------------------|
B|---------------------------------------------|
G|-4-------------------22222222----------------|
D|-4-x-alot---55555555-22222222----------------|
A|-2----------55555555-00000000----------------|
E|------------33333333-------------------------|


3rd Chorus:
e|-----------------------------------------|
B|-----------------------------------------|
G|-4~--------------------------------------|
D|-4~------22222222-6666-2222--------------|
A|-2~------22222222-6666-2222--------------|
E|---------00000000-4444-0000--------------|


3rd Chorus Cont. (End):
e|---------------------------------------------------------------|
B|---------------------------------------------------------------|
G|-44444444-33333333---------------------44444444-33333333-------|
D|-44444444-44444444-22222222-6666-2222--44444444-44444444---2~--|
A|-22222222-11111111-22222222-6666-2222--22222222-11111111---2~--|
E|-------------------00000000-4444-0000----------------------0~--|


have fun.

            
            
Suggest correction
Creating personal tab
Creating personal tab
You can edit any tab online and save it as your Personal.

You can edit, replace or remove any tab part or add personal notes – all changes will be seen only by you.

Personal tabs can be accessed anytime from any device, even offline.
Learn more »
comments
print report bad tab
6 comments total. Showing first comments.
+1 reply
guitar-chicko 40 Oct 19, 2005 11:59 AM

Tab is much better than my own.

0 reply
punkextremest 47 Apr 18, 2006 06:09 AM

good tab, best one ive seen for this song.

0 reply
Hyper2980 10 Sep 29, 2009 05:09 PM

im new so if im wrong then.... but shouldnt it be 0 4 2by the way gr8 ta
2 6 4
2 6 4

guest
You may want to rate the tab now too:
select rating
Wanna post a correction for this tab? Suggest correction