Oops, an error
Loading. Please wait.

Sophomore Slump Or Comeback Of The Year bass

version 1
version 1

Whole song

6,236 views 6 this week
6 commentsread comments
1 2 3 4 5
x 7
add to favorites
×
Save as Personal and add changes to this tab that will be seen only by you. Learn more ›
×
You can save this tab as Personal to edit and correct it or add notes. All changes will be seen only by you. Learn more »
launch autoscroll
font size
0
reset
guitar tuner
edit
Autoscroll
slow
fast
+/-
esc
set tempo
stop
Author
-------------------------------------------------------------------------------
			     Sophomore Slump Or Comeback Of The Year - Fall Out Boy
-------------------------------------------------------------------------------

Tabbed By : Dave Hoppus
e-mail: davehoppus@hotmail.com

Tuning: Normal - G D A E 


\"W\'re the therapists...\"
G  :------------------|
D: :------------------|
A  :------------22222-|
E  :-44-2-0-22-2------|

Pre Chorus

\"I\'ll keep singing this lie...\"
G  :------------------|-------------------|
D  :------------------|-------------------|
A  :------------------|----------22222222-|
E  :44444444-22222222-|-00000000----------|

G  :------------------|-------------------|
D  :------------------|-------------------|
A  :------------------|-------------------|
E  :44444444-22222222-|-00000000-22222222-|

Chorus

\"Are we growing up..\"
G  :------------------|--------------------|
D  :------------------|--------------------|
A  :22222222-11111111-|--------------------|
E  :------------------|-00000000-4444-2222-|

Chorus

G  :-------------------|--------------------|
D  :-------------------|--------------------|
A  :22222222-11111111X-|--------------------|
E  :-------------------|-00000000-4444-2222-|

Verse
X a bunch

G  :------------------|
D: :------------------|
A  :------------22222-|
E  :-44-2-0-22-2------|

Pre Chorus

\"Cuz I\'ll keep singing...\"
G  :------------------|-------------------|
D  :------------------|-------------------|
A  :------------------|-------------------|
E  :44444444-22222222-|-00000000-22222222-|


Chorus
x4

G  :------------------|--------------------|
D  :------------------|--------------------|
A  :22222222-11111111-|--------------------|
E  :------------------|-00000000-4444-2222-|

G  :-------------------|--------------------|
D  :-------------------|--------------------|
A  :22222222-11111111X-|--------------------|
E  :-------------------|-00000000-4444-2222-|

G  :-------------------|--------------------|
D  :-------------------|--------------------|
A  :22222222-11111111X-|--------------------|
E  :-------------------|-00000000-4444-2222-|

G  :-------------------|
D  :-------------------|
A  :-2~----------------|
E  :-------------------|

Bridge:

(strum lightly)
G  :-------------------|
D  :-------------------|
A  :-2-----------------|
E  :-------------------|

\"so give in...\"         \"the best part....\"
G  :-------------------|-------------------|
D  :-------------------|-------------------|
A  :-------------------|-22222222-22222222-|
E  :-00000000-22222222-|-------------------|


G  :-------------------|-------------------|
D  :-------------------|-------------------|
A  :-22222222-22222222-|-------------------|
E  :-------------------|-00000000-22222222-|

\"Are we growing up...\"
A  :-2~-1~--|

Chorus

\"Are we growing up..\"  \"DOWN!!!!!!\"
G  :------------------|--------------------|
D  :------------------|--------------------|
A  :-2~-1~------------|--------------------|
E  :------------------|-00000000-4444-2222-|

Last Chorus:

G  :------------------|--------------------|
D  :------------------|--------------------|
A  :22222222-11111111-|--------------------|
E  :------------------|-00000000-4444-2222-|

G  :-------------------|--------------------|
D  :-------------------|--------------------|
A  :22222222-11111111X-|--------------------|
E  :-------------------|-0~---------------

            
            
Suggest correction
Creating personal tab
Creating personal tab
You can edit any tab online and save it as your Personal.

You can edit, replace or remove any tab part or add personal notes – all changes will be seen only by you.

Personal tabs can be accessed anytime from any device, even offline.
Learn more »
comments
print report bad tab
6 comments total. Showing first comments.
0 reply
Faggio 10 Mar 19, 2006 08:19 PM

I believe it's a sophomore slump!...am I right or am I wrong?

0 reply
SammyRhyno 92 May 06, 2006 03:16 AM

This bass tab is wrong i've tried it out about 10 times with the song and it doesn't work, its very close but it just doesn't fit the song...

+1 reply
hangbad 10 Dec 15, 2006 01:56 AM

i think that this
G :------------------|-------------------|
D :------------------|-------------------|
A :------------------|----------22222222-|
E :44444444-22222222-|-00000000----------|

is not wrong, it`s just a confusion ,it is actually
G :------------------|-------------------|
D :------------------|-------------------|
A :------------------|----------22222222-|
E :00000000-22222222-|44444444-----------|

guest
You may want to rate the tab now too:
select rating
Wanna post a correction for this tab? Suggest correction