Oops, an error
Loading. Please wait.

Sugar Were Going Down Tab

version 1
version 1
734,592 views 897 this week
142 commentsread comments
1 2 3 4 5
excellent!
x 357
add to favorites
launch autoscroll
font size
0
reset
how to read this tab
guitar tuner
Tab Pro tools
  • play this tab
  • loop segment
  • change instrument
  • show fretboard
  • metronome
×
Best way to learn
"Sugar Were Going Down"
Autoscroll
slow
fast
+/-
esc
set tempo
stop
------------------------------------------------------------------
                SUGAR, WE'RE GOING DOWN - Fall Out Boy
------------------------------------------------------------------
Tabbed by: Stephen Adams        
Email: bigsteve0788@aol.com

Tuning: Drop D


[Intro Guitar 1]

e|-----------------------------------------------------------------|
B|-----------------------------------------------------------------|
G|-----------------------------------------------------------------|
D|-0-0-0-0-0-0-0-0-0-0-0-0-0-0-0-0--5-5-5-5-5-5-5-5-5-5-5-5-5-5-5-5|
A|-0-0-0-0-0-0-0-0-0-0-0-0-0-0-0-0--5-5-5-5-5-5-5-5-5-5-5-5-5-5-5-5|
D|-0-0-0-0-0-0-0-0-0-0-0-0-0-0-0-0--5-5-5-5-5-5-5-5-5-5-5-5-5-5-5-5|
                                                                        x2
e|----------------------------------------------------------------|
B|----------------------------------------------------------------|
G|----------------------------------------------------------------|
D|-9-9-9-9-9-9-9-9-9-9-9-9-9-9-9--5-5-5-5-5-5-5-5-5-5-5-5-5-5-5-5-|
A|-9-9-9-9-9-9-9-9-9-9-9-9-9-9-9--5-5-5-5-5-5-5-5-5-5-5-5-5-5-5-5-|
D|-9-9-9-9-9-9-9-9-9-9-9-9-9-9-9--5-5-5-5-5-5-5-5-5-5-5-5-5-5-5-5-|


[Intro Guitar 2]

e|-------------------------------------|
B|-7-7-7--5-5-5--8-8-8--5-5-5--7-7--5-5|
G|-7-7-7--7-7-7--7-7-7--7-7-7--7-7--7-7|
D|-------------------------------------|x2
A|-------------------------------------|
D|-------------------------------------|


[Intro Guitar 2 Continued]

e|-----------------------------------------|
B|-7-7-7--5-5-5--8-8-8--5-5-5--7-7--5-5--7~|
G|-7-7-7--7-7-7--7-7-7--7-7-7--7-7--7-7--7~|
D|-----------------------------------------|
A|-----------------------------------------|
D|-----------------------------------------|


[Verse 1 Guitar 1]

 "Lie in the grass..."
e|------------------|
B|------------------|
G|-7-7-7-7--7-7-7-7-|
D|-x-x-x-x--x-x-x-x-| x4
A|-5-5-5-5--7-7-7-7-|
D|------------------|


[Verse 1 Guitar 2 ]

"Lie in the grass..."
e|------------------------|
B|------------------------|
G|------------------------|
D|-7-7-7-7h9-7------7h9-7-|
A|-5-5-5-5---5---7h9-----7|
D|------------------------|
   * * 

   
[Verse 1 Guitar 2 Continued]

e|-----------------------|
B|-----------------------|
G|-----------------------|
D|-7-7-7h9-7------7h9-7--| x3
A|-5-5-5---5---7h9-----7-|
D|-----------------------|


[Pre-Chorus]

 "Drop a heart..." (palm mute)

e|------------------------------------------------------------|
B|------------------------------------------------------------|
G|------------------------------------------------------------|
D|-0-0-0-0-0-0--5-5-5-5-5-5-5-5--7-7-7-7-7-7--9-9-9-9-9-9-9-9-|
A|-0-0-0-0-0-0--5-5-5-5-5-5-5-5--7-7-7-7-7-7--9-9-9-9-9-9-9-9-|
D|-0-0-0-0-0-0--5-5-5-5-5-5-5-5--7-7-7-7-7-7--9-9-9-9-9-9-9-9-|
   
e|--------------------------------------------------------------|
B|--------------------------------------------------------------|
G|--------------------------------------------------------------|
D|-10-10-10-10-10-10---9-9-9-9-9-9-9-9--5-5-5-5-5-5-5-5-5-5-5-5-|
A|-10-10-10-10-10-10---9-9-9-9-9-9-9-9--5-5-5-5-5-5-5-5-5-5-5-5-|
D|-10-10-10-10-10-10---9-9-9-9-9-9-9-9--5-5-5-5-5-5-5-5-5-5-5-5-|   
   
   
[Chorus]

e|-----------------------------------------------------------------|
B|-----------------------------------------------------------------|
G|-----------------------------------------------------------------|
D|-0-0-0-0-0-0-0-0-0-0-0-0-0-0-0-0--5-5-5-5-5-5-5-5-5-5-5-5-5-5-5-5|
A|-0-0-0-0-0-0-0-0-0-0-0-0-0-0-0-0--5-5-5-5-5-5-5-5-5-5-5-5-5-5-5-5|
D|-0-0-0-0-0-0-0-0-0-0-0-0-0-0-0-0--5-5-5-5-5-5-5-5-5-5-5-5-5-5-5-5|

e|----------------------------------------------------------------|
B|----------------------------------------------------------------|
G|----------------------------------------------------------------|
D|-9-9-9-9-9-9-9-9-9-9-9-9-9-9-9--5-5-5-5-5-5-5-5-5-5-5-5-5-5-5-5-|
A|-9-9-9-9-9-9-9-9-9-9-9-9-9-9-9--5-5-5-5-5-5-5-5-5-5-5-5-5-5-5-5-|
D|-9-9-9-9-9-9-9-9-9-9-9-9-9-9-9--5-5-5-5-5-5-5-5-5-5-5-5-5-5-5-5-|


[Chorus Continued]

e|--------------------------------------------------------|
B|--------------------------------------------------------|
G|--------7-7-7---------7-7-7---------7-7-7---------7-7-7-|
D|-0-0-0--x-x-x--0-0-0--x-x-x--5-5-5--x-x-x--5-5-5--x-x-x-|
A|-0-0-0--5-5-5--0-0-0--5-5-5--5-5-5--5-5-5--5-5-5--5-5-5-|
D|-0-0-0---------0-0-0---------5-5-5---------5-5-5--------|


[Chorus Continued]

e|------------------------------------------------------------|
B|------------------------------------------------------------|
G|--------11-11-11--------11-11-11---------7-7-7---------7-7-7|
D|-9-9-9--x--x--x--9-9-9--x--x--x---5-5-5--x-x-x--5-5-5--x-x-x|
A|-9-9-9--9--9--9--9-9-9--9--9--9---5-5-5--5-5-5--5-5-5--5-5-5|
D|-9-9-9-----------9-9-9------------5-5-5---------5-5-5-------|


[Pre-Verse]

e|-----------------------------------------|
B|-----------------------------------------|
G|-----------------------------------------|
D|-0-0-0-0--0--0-0--5-5-5--5-5-5--5-5--5-5-|
A|-0-0-0-0--0--0-0--5-5-5--5-5-5--5-5--5-5-|
D|-0-0-0-0--0--0-0--5-5-5--5-5-5--5-5--5-5-|
   * * * *     * *  * * *  * * *  *    *    
   
e|-------------------------------------------------------|
B|-------------------------------------------------------|
G|-------------------------------------------------------|
D|-7-7-7-7--7--9-9-9--9-9-9--9-9--9-9--10-10-10-10--10---|
A|-7-7-7-7--7--9-9-9--9-9-9--9-9--9-9--10-10-10-10--10---|
D|-7-7-7-7--7--9-9-9--9-9-9--9-9--9-9--10-10-10-10--10---|
   * * * *     * * *  * * *  *    *    ** ** ** **

[Pre-Verse Continued]

e|---------------------------------|
B|---------------------------------|
G|------------------------------7~-|
D|-9-9-9--9-9-9--9-9--9-9---5~--7~-|
A|-9-9-9--9-9-9--9-9--9-9---5~--5~-|
D|-9-9-9--9-9-9--9-9--9-9---5~-----|
   * * *  * * *  * *

[Verse 2]

Guitar 1 "Is this more than..." (palm muted)

e|-----------------------------------------------------------------|
B|-----------------------------------------------------------------|
G|-----------------------------------------------------------------|
D|-0-0-0-0-0-0-0-0-0-0-0-0-0-0-0-0--5-5-5-5-5-5-5-5-5-5-5-5-5-5-5-5|
A|-0-0-0-0-0-0-0-0-0-0-0-0-0-0-0-0--5-5-5-5-5-5-5-5-5-5-5-5-5-5-5-5|
D|-0-0-0-0-0-0-0-0-0-0-0-0-0-0-0-0--5-5-5-5-5-5-5-5-5-5-5-5-5-5-5-5|
                                                                      x4
e|----------------------------------------------------------------|
B|----------------------------------------------------------------|
G|----------------------------------------------------------------|
D|-9-9-9-9-9-9-9-9-9-9-9-9-9-9-9--5-5-5-5-5-5-5-5-5-5-5-5-5-5-5-5-|
A|-9-9-9-9-9-9-9-9-9-9-9-9-9-9-9--5-5-5-5-5-5-5-5-5-5-5-5-5-5-5-5-|
D|-9-9-9-9-9-9-9-9-9-9-9-9-9-9-9--5-5-5-5-5-5-5-5-5-5-5-5-5-5-5-5-|


[Verse 2]

Guitar 2 "Isn't it messed up"
e|------------------------|
B|------------------------|
G|--7-7-7-7--7-7--7-7-7-7-|
D|--x-x-x-x--x-x--x-x-x-x-| x4
A|--5-5-5-5--5-5--7-7-7-7-|
E|------------------------|


[Pre-Chorus]

"Drop a heart..." (palm mute)
e|-------------------------------------------------------------|
B|-------------------------------------------------------------|
G|-------------------------------------------------------------|
D|-0-0-0-0-0-0--5-5-5-5-5-5-5-5---7-7-7-7-7-7--9-9-9-9-9-9-9-9-|
A|-0-0-0-0-0-0--5-5-5-5-5-5-5-5---7-7-7-7-7-7--9-9-9-9-9-9-9-9-|
D|-0-0-0-0-0-0--5-5-5-5-5-5-5-5---7-7-7-7-7-7--9-9-9-9-9-9-9-9-|

e|-------------------------------------------------------------|
B|-------------------------------------------------------------|
G|-------------------------------------------------------------|
D|-10-10-10-10-10-10--9-9-9-9-9-9-9-9--5-5-5-5-5-5-5-5-5-5-5-5-|
A|-10-10-10-10-10-10--9-9-9-9-9-9-9-9--5-5-5-5-5-5-5-5-5-5-5-5-|
D|-10-10-10-10-10-10--9-9-9-9-9-9-9-9--5-5-5-5-5-5-5-5-5-5-5-5-|


[Chorus]

e|-----------------------------------------------------------------|
B|-----------------------------------------------------------------|
G|-----------------------------------------------------------------|
D|-0-0-0-0-0-0-0-0-0-0-0-0-0-0-0-0--5-5-5-5-5-5-5-5-5-5-5-5-5-5-5-5|
A|-0-0-0-0-0-0-0-0-0-0-0-0-0-0-0-0--5-5-5-5-5-5-5-5-5-5-5-5-5-5-5-5|
D|-0-0-0-0-0-0-0-0-0-0-0-0-0-0-0-0--5-5-5-5-5-5-5-5-5-5-5-5-5-5-5-5|

e|----------------------------------------------------------------|
B|----------------------------------------------------------------|
G|----------------------------------------------------------------|
D|-9-9-9-9-9-9-9-9-9-9-9-9-9-9-9--5-5-5-5-5-5-5-5-5-5-5-5-5-5-5-5-|
A|-9-9-9-9-9-9-9-9-9-9-9-9-9-9-9--5-5-5-5-5-5-5-5-5-5-5-5-5-5-5-5-|
D|-9-9-9-9-9-9-9-9-9-9-9-9-9-9-9--5-5-5-5-5-5-5-5-5-5-5-5-5-5-5-5-|


[Chorus Continued]

e|--------------------------------------------------------|
B|--------------------------------------------------------|
G|--------7-7-7---------7-7-7---------7-7-7---------7-7-7-|
D|-0-0-0--x-x-x--0-0-0--x-x-x--5-5-5--x-x-x--5-5-5--x-x-x-|
A|-0-0-0--5-5-5--0-0-0--5-5-5--5-5-5--5-5-5--5-5-5--5-5-5-|
D|-0-0-0---------0-0-0---------5-5-5---------5-5-5--------|


[Chorus Continued]

e|------------------------------------------------------------|
B|------------------------------------------------------------|
G|--------11-11-11--------11-11-11---------7-7-7---------7-7-7|
D|-9-9-9--x--x--x--9-9-9--x--x--x---5-5-5--x-x-x--5-5-5--x-x-x|
A|-9-9-9--9--9--9--9-9-9--9--9--9---5-5-5--5-5-5--5-5-5--5-5-5|
D|-9-9-9-----------9-9-9------------5-5-5---------5-5-5-------|


[Interlude Guitar 1]

e|----------------------------------------------------------------|
B|----------------------------------------------------------------|
G|----------------------------------------------------------------|
D|-5--2-2-2-0~-------5~--------0~--------5~-----------5-5---------|
A|-5--2-2-2-0~-------5~--------0~--------5~-----------5-5---------|
D|-5--2-2-2-0~-------5~--------0~--------5~-----------5-5---------|
   *  * * *
   
[Interlude Guitar 2]

e|---------------------------------------------------------------------------|
B|-7-7-7--5-5-5--8-8-8--5-5-5--7-7--5-5--------------------------------------|
G|-7-7-7--7-7-7--7-7-7--7-7-7--7-7--7-7--------------------------------------|
D|---------------------------------------------------------------------------|x3
A|---------------------------------------------------------------------------|
D|---------------------------------------------------------------------------|


[Interlude Continued Guitar 1]

(palm muted)

e|---------------------------------------------------------------------------------------|
B|---------------------------------------------------------------------------------------|
G|---------------------------------------------------------------------------------------|
D|-0-0-0-0-0--0-0-0-0-0--5-5-5-5-5--5-5-5-5-5--9-9-9-9-9--9-9-9-9-9--5-5-5-5-5--5-5-5-5-5|
A|-0-0-0-0-0--0-0-0-0-0--5-5-5-5-5--5-5-5-5-5--9-9-9-9-9--9-9-9-9-9--5-5-5-5-5--5-5-5-5-5|
D|-0-0-0-0-0--0-0-0-0-0--5-5-5-5-5--5-5-5-5-5--9-9-9-9-9--9-9-9-9-9--5-5-5-5-5--5-5-5-5-5|


[Interlude Continued Guitar 2]

e|--------------------------------------------------------------|
B|--------------------------------------------------------------|
G|------6h7-6h7-7-----6h7-6h7-7---------------------------------|
D|-----7---7---7-----7---7---7----------------------------------|x4
A|--------------------------------------------------------------|
D|--------------------------------------------------------------|


[Interlude Continued Guitar 1]

e|------------------------------------------------------------------|
B|------------------------------------------------------------------|
G|------------------------------------------------------------------|
D|-0-0-0-0-0-0-0-0-0-0-0-0-0-0-0-0--5-5-5-5-5-5-5-5-5-5-5-5-5-5-5-5-|
A|-0-0-0-0-0-0-0-0-0-0-0-0-0-0-0-0--5-5-5-5-5-5-5-5-5-5-5-5-5-5-5-5-|
D|-0-0-0-0-0-0-0-0-0-0-0-0-0-0-0-0--5-5-5-5-5-5-5-5-5-5-5-5-5-5-5-5-|

e|---------------------------------------------|
B|---------------------------------------------|
G|---------------------------------------------|
D|--9-9-9-9-9-9-9-9-9-9-9-9-9-9-9-9--5---------|
A|--9-9-9-9-9-9-9-9-9-9-9-9-9-9-9-9--5---------|
D|--9-9-9-9-9-9-9-9-9-9-9-9-9-9-9-9--5---------|


[Interlude Continued Guitar 2]

e|--------------------------------------------------------------|
B|--------------------------------------------------------------|
G|------6h7-6h7-7-----6h7-6h7-7---------------------------------|
D|-----7---7---7-----7---7---7----------------------------------|x3
A|--------------------------------------------------------------|
D|--------------------------------------------------------------|


[Interlude Continued Guitar 3]

e|---------------------------------------|
B|-7-7-7---5-5-5--8-8-8--5-5-5--7-7--5-5-|
G|-7-7-7---7-7-7--7-7-7--7-7-7--7-7--7-7-|
D|---------------------------------------| x3
A|---------------------------------------|
D|---------------------------------------|


[Outro Guitar 1]

e|----------------------|
B|----------------------|
G|----------------------|
D|-5--2-2-2--0~---------|
A|-5--2-2-2--0~---------|
D|-5--2-2-2--0~---------|


[Outro Guitar 2]

(fades out)

e|---------------------------------------|
B|-7-7-7--5-5-5--8-8-8--5-5-5---7-7--5-5-|
G|-7-7-7--7-7-7--7-7-7--7-7-7---7-7--7-7-|
D|---------------------------------------| x2
A|---------------------------------------|
D|---------------------------------------|


***************************
|*  palm mute
|h  hammer on 
***************************
comments
print report bad tab
142 comments total. Showing first comments.
0 reply
J_master26 wrote on April 22 2005, 12:00 am

good tab. I need to listen to the song more to learn how to play everything tho

+2 reply
jinny4444 wrote on June 22 2005, 12:00 am

nice, its easy to read, nice flow, i like it, helped a lot

0 reply
brandewyork wrote on June 25 2005, 12:00 am

very nice tab

I want to post or [tab]
guest
You may want to rate the tab now too:
select rating
Please do not post tabs as comments. Select "correction" instead!