Oops, an error
Loading. Please wait.

Switchblades And Infidelity bass

version 1
version 1

Whole song

483 views 1 this week
2 commentsread comments
1 2 3 4 5
1 last vote to show rating
add to favorites
×
Save as Personal and add changes to this tab that will be seen only by you. Learn more ›
×
You can save this tab as Personal to edit and correct it or add notes. All changes will be seen only by you. Learn more »
launch autoscroll
font size
0
reset
guitar tuner
edit
Autoscroll
slow
fast
+/-
esc
set tempo
stop
Author
Difficulty
This Song Is 100% Correct And I Can Guarantee That (=
By The Way This Is The Version Off The Album That Is 2:03 Long

Intro (X3)

G |----------------------|
D |----------------------|
A |----------22222222----|
E |--444-222-------------|


Pre Verse

G |-------------|
D |-------------|
A |-------------|
E | --444-222---|


Verse Part 1 (X3)

G |----------------------------------------|
D |----------------------------------------|
A |--22222222------------------------------|
E |-----------00000000-4444-2222-00000000--|


Verse Part 2

G |------------------------------------------|
D |------------------------------------------|
A |--22222222--------------------------------|
E |-----------00000000--4--4-2--2-0--00000---|


Chorus (X4)

G |-------------------------------------|
D |-------------------------------------|
A |--22-22-2----------------------------|
E |----------44-44-4--22-22-2--00-00-0--|


Verse Part 1 (X3)

G |----------------------------------------|
D |----------------------------------------|
A |--22222222------------------------------|
E |-----------00000000-4444-2222-00000000--|


Verse Part 2

G |------------------------------------------|
D |------------------------------------------|
A |--22222222--------------------------------|
E |-----------00000000--4--4-2--2-0--00000---|


Chorus (X3)

G |-------------------------------------|
D |-------------------------------------|
A |--22-22-2----------------------------|
E |----------44-44-4--22-22-2--00-00-0--|


End
G |-------------------------------------|
D |-------------------------------------|
A |--22-22-2----------------------------|
E |----------44-44-4--22-22-2--000-000--|

Thats It. Easy Peasy. E-mail Me With Queries mike.barton@hotmail.com

            
            
Suggest correction
Creating personal tab
Creating personal tab
You can edit any tab online and save it as your Personal.

You can edit, replace or remove any tab part or add personal notes – all changes will be seen only by you.

Personal tabs can be accessed anytime from any device, even offline.
Learn more »
Give kudos to tab author, rate the tab!
1 2 3 4 5
comments
print report bad tab
2 comments total.
0 reply
BETH_FISH 82 Aug 29, 2010 03:43 AM

100% accurate. great job dude, thanks so much!

0 reply
PTV!FIR!<3 10 Feb 23, 2013 06:22 PM

my band thought this was way sick when i played it for them!! Thanks!(:

guest
You may want to rate the tab now too:
select rating
Wanna post a correction for this tab? Suggest correction