Oops, an error
Loading. Please wait.
We have an official Take Over The Breaks Over tab made by UG professional guitarists. Check out the tab »
×
43,906 views 30 this week
16 commentsread comments
1 2 3 4 5
x 32
add to favorites
×
Save as Personal and add changes to this tab that will be seen only by you. Learn more ›
×
You can save this tab as Personal to edit and correct it or add notes. All changes will be seen only by you. Learn more »
launch autoscroll
font size
0
reset
guitar tuner
edit
Autoscroll
slow
fast
+/-
esc
set tempo
stop
Author
[Verse] (x2)
G|-----------------------------------|
D|-----------------------------------|
A|-44444444------------------22222-3-|
E|----------44444-3-22222222---------|

[Pre-Chorus]
G|--------------------------------------------------------------------|
D|--------------------------------------------------------------------|
A|--------------------------44444-2-------------------------4444-22-4-|
E|-55555555-77777-5-4444444---------5555555-77777-5-4444444-----------|

[Pre-Verse] (x4)
G|---------------------------------|
D|---------------------------------|
A|-4-4-4-4-----------------22222-3-|
E|---------44444-3-2-2-2-2---------|

[Verse] (x2)
G|-----------------------------------|
D|-----------------------------------|
A|-44444444------------------22222-3-|
E|----------44444-3-22222222---------|

[Pre-Chorus]
G|----------------------------------------------------------------|
D|----------------------------------------------------------------|
A|--------------------------44444-2-------------------------4444x-|
E|-55555555-77777-5-4444444---------5555555-77777-5-4444444-------|

[Chorus]
(Pt. 1)
G|----------------------------------------|
D|----------------------------------------|
A|-----------------------4444444-22222222-|
E|-0-00~-7-77~-7-4-5-55~------------------|

[Chorus] 
(Pt. 2)
G|---------------------------------------------------------------------|
D|---------------------------------------------------------------------|
A|---------------------------------------------------44444444-22222222-|
E|-0000000000000000-7777777777777-4-5555555555555555-------------------|

[Solo] (x4)
G|-----------------------------------|
D|-----------------------------------|
A|---------------------------44444-2-|
E|-55555555-77777-5-44444444---------|

[Chorus/Outro]
G|--------------------------------------|
D|--------------------------------------|
A|---------------------4444444-22222222-|
E|-0-00~-7-77~-4-5-55~------------------|

G|--------------------------------------------------|
D|--------------------------------------------------|
A|------------------------------------4-44-42-22-22-|
E|-0-00-00-00-7-77-77-77-4-5-55-55-55---------------|

G|---------------------------------------------------------------------|
D|---------------------------------------------------------------------|
A|---------------------------------------------------44444444-22222222-|
E|-0000000000000000-7777777777777-4-5555555555555555-------------------|


************************************

| x  Dead note
| ~  Vibrato

************************************

            
            
Suggest correction
Creating personal tab
Creating personal tab
You can edit any tab online and save it as your Personal.

You can edit, replace or remove any tab part or add personal notes – all changes will be seen only by you.

Personal tabs can be accessed anytime from any device, even offline.
Learn more »
comments
print report bad tab
16 comments total. Showing first comments.
0 reply
MetalBassist93 345 Feb 08, 2007 10:44 AM

Nice job! *5 stars*
(one thing though, in the Pre-Chorus, after the 55555555, i think the 44444's are supposed to be 22222, cause it sounds better for me, but good work)

0 reply
Pickleboy03 80 Feb 08, 2007 04:54 PM

Woops, thats my mistake, you're right, I think I just had like, a brain fart on that one, lol.

0 reply
LCAY124 178 Aug 02, 2007 12:32 PM

reall good tab man

guest
You may want to rate the tab now too:
select rating
Wanna post a correction for this tab? Suggest correction