Oops, an error
Loading. Please wait.
We have an official Take Over The Breaks Over tab made by UG professional guitarists. Check out the tab »
×
78,889 views 21 this week
36 commentsread comments
1 2 3 4 5
x 27
add to favorites
×
Save as Personal and add changes to this tab that will be seen only by you. Learn more ›
×
You can save this tab as Personal to edit and correct it or add notes. All changes will be seen only by you. Learn more »
launch autoscroll
font size
0
reset
how to read this tab
guitar tuner
edit
Autoscroll
slow
fast
+/-
esc
set tempo
stop
Author
Difficulty
STANDARD TUNNING

I heard this song on aol sessions! it is so kool!. i can only really hear well enough
the beginning right now. wants i get the other guitar part together ill update. This is a
fun song. here is the link to the vid page.http://music.aol.com/artist/fall-out-boy/533936/video


Guitar 1  Intro

e|---------------------------------------------------------|
B|---------------------------------------------------------|
G|-----4----4---4-----4-------------4---4---4----4-----2---| X8
D|-----------------------------------------------------4---|
A|--4----4---4--------------5~----------------22---22--3---|
E|---------------4-4---4-4--3~--2-----2---2----------------|
PM  *    *   *   * *   * *            *   *   **

BAby seasons Change but people don't   i know the last chord sounds wierd but if you listen you can hear it.


Guitar 3 START On The 4th TIME ON GUITAR 1!!!!

e|--------------------------------------|
B|--------------------------------------|
G|--------------------------------------| X4
D|--6666666-------------------4444404~--|
A|--44444440-66666-5~4444444--2222203~--|
E|-----------4444403~22222220-----------|
PM  ******** ***** * ******** **** *

"Don't pretend you ever forgot about me"

Both Guitars

e|------------------------------------|
B|------------------------------------|
G|-------------------------66666--44--|
D|--7777777-99999-7-66666--66666--44--| X4
A|--7777777-99999-7-666660-444440-22--|
E|--5555555-77777-5-444440-44444------|

"Wouldn't you rather be a widow..."

Guitar 1
e|---------------------------------------------------------|
B|---------------------------------------------------------|
G|-----4----4---4-----4-------------4---4---4----4-----2---| X8
D|-----------------------------------------------------4---|
A|--4----4---4--------------5~----------------22---22--3---|
E|---------------4-4---4-4--3~--2-----2---2----------------|
PM               * *   * *            *   *   **

"We don't fight fair"

Guitar 3                   guitar 4 plays this part after the guitar 3 part
e|---------------------|         e|------------------------
B|---------------------|         B|------------------------
G|--9-9-9-13-10-10-10--|         G|--8h9~--8h9--8h9--------
D|--x-x-x--x--x--x--x--|         D|------------------7-6~--
A|--7-7-7-11--8--8--8--|         A|------------------------
E|---------------------|         E|------------------------

"Say our heads could be prisons"

Guitar 3 START On The 4th TIME ON GUITAR 1!!!!

e|-----------------------------------------|
B|-----------------------------------------|
G|-----------------------------------------| X4
D|--6666666---------------------44444--4~--|
A|--44444440-66666--5~-4444444--222220-3~--|
E|-----------444440-3~-22222220------------|
PM  ******** ******    ******** **** *


Wouldn't you rather be a widow...

e|------------------------------------|
B|------------------------------------|
G|-------------------------66666--44--|
D|--7777777-99999-7-66666--66666--44--|
A|--7777777-99999-7-666660-444440-22--|
E|--5555555-77777-5-444440-44444------|

Both Guitars

e|-----------------------------|
B|-----------------------------|
G|---------------------6666-4--|
D|--77777-99997-666666-6666-4--| X4      this has a wierd strumming pattern
A|--77777-99997-666666-4444-2--|           i know this is how many times 
E|--55555-77775-444444---------|           you strum.

"Wouldn't you rather be a widow..."


Guitar 3

e|---------------------------------------------------------|
B|---------9-------12121212101099-----------9--------------|
G|---9~--9----11b----------------1111--9~-9---11b----------| 1/4 bend
D|---------------------------------------------------------| slight vibrato
A|---------------------------------------------------------|
E|---------------------------------------------------------|


1 and 2 CHORUS

e|-------------------------------------------------------|
B|-------------------------------------------------------|
G|--9-x-99------------4-x-44------4----------------------|
D|--9-x-99------------4-x-44------4----------------------|
A|--7-x-77-7777777777-2-x-22-2222-2-7-7-x-77-7777777777--|
E|--0---00-0000000000---------------4-5-x-55-5555555555--|
PM         **********        ****            **********

we do it in the dark

e|-------------------|
B|-------------------|
G|--------------4x4--|
D|--6666666444444x4--|
A|--4444444222222x2--|
E|--4444444----------|
PM   ***********

"In Secret places Woah"

e|--------------------------------------------------------------|
B|--------------------------------------------------------------|
G|--9~-99~-99~-99-9-4-44-44-4-4--------------6-------4-----4-4--|
D|--9~-99~-99~-99-9-4-44-44-4-4--------------6666666644444-4-4--|
A|--7~-77~-77~-77-7-2-22-22-2-2-7-7-77-77-77-4444444422222-2-2--|
E|--0--00--00--00-0-------------4-5-55-55-55-44444444-----------|
PM                                            ******* ****

"We do it in the dark"

Guitar 1  Intro

e|--------------------------------------------------------|
B|--------------------------------------------------------|
G|-----4----4---4-----4-------------4---4---4----4-----2--| X3
D|-----------------------------------------------------4--|
A|--4----4---4--------------5~----------------22---22--3--|
E|---------------4-4---4-4--3~--2-----2---2---------------|
PM  *    *   *   * *   * *            *   *   **

"WE don't fight fair"

Interlude Guitar one

e|------------------------------------------------------|
B|------------------------------------------------------|
G|-----4----4---4-----4-------------4---4---4-----------|
D|------------------------------------------------------|
A|--4----4---4--------------5~----------------22222222--|
E|---------------4-4---4-4--3~--2-----2---2-------------|
PM  *    *   *   * *   * *            *   *   ********

Guitar 3 SOLO

e|---------------------------|---------------------------------------|
B|---------------------------|---------------------------------------|
G|---------------------------|---------------------------------------|
D|-----67-66-46-9-7-6--------|----67-66-46-9-7-6------9-11-9~~~~~~---|
A|--467--------------6-7-4---|-467---------------9-11----------------|
E|------------------------7--|---------------------------------------|

Guitar 4 SOLO               e|--------------------------------------------|
                            B|-----------------5---------5-5g7-5~---------|
                            G|-------46-44--4----7-6-4-6------------------|
                            D|----467------7------------------------------|
   g=grace note             A|--------------------------------------------|
                            E|--------------------------------------------|

Guitar 5 SOLO

B/R means bend release!!!!!

e|---------------------------------------------------|
B|-----12----12----12------------12---12----12-9b/r--|
G|---9-----9---x-8----x11b/r------------x-9----------|
D|---------------------------9-11---11---------------|
A|---------------------------------------------------|
E|---------------------------------------------------|

Guitar 5 SOLO

e|------------------------------------------------------------------|
B|------12----12----12----------------------------------------------|
G|----9-----9----x8----11b/r--6\-8\-9\-11b11b11b11b11b11b11b11b11b--|
D|-----------------x------------------------------------------------|
A|------------------------------------------------------------------|
E|------------------------------------------------------------------|

  b=very gradual bends that end up being 1/2 step up

CHORUS Guitar 1

e|---------------------------------------------------------------------------|
B|---------------------------------------------------------------------------|
G|--9-x-99-x-99-x-99-x-44-x-44-x-44-x-44---------------------66-x-66-x-44x44x|
D|--9-x-99-x-99-x-99-x-44-x-44-x-44-x-44---------------------66-x-66-x-44x44x|
A|--7-x-77-x-77-x-77-x-22-x-22-x-22-x-22-7-7-x-77-x-77-x-77-x44-x-44-x-22x22x|
E|--0---00---00---00---------------------4-5-x-55-x-55-x-55-x----------------|

"We do it in the dark

CHORUS Guitar 2

e|-------------------------------------------------------------------------|
B|-------------------------------------------------------------------------|
G|--9-x-99-x-99-x-99-x-44-x-44-x-44-x-44-------------------66666666444444x4-
D|--9-x-99-x-99-x-99-x-44-x-44-x-44-x-44-7-6-7-x-77-x-77-x-66666666444444x4-
A|--7-x-77-x-77-x-77-x-22-x-22-x-22-x-22-7-6-7-x-77-x-77-x-44444444222222x2-
E|--0---00---00---00---------------------5-4-5-x-55-x-55-x------------------

"We do it in the dark"

Guitar 1

e|--------------------------------------------------------------|
B|--------------------------------------------------------------|
G|--9~~~~~~~~~~~~4~~~~~~~~~~~~-----------------6------------4-4-|
D|--9~~~~~~~~~~~~4~~~~~~~~~~~~6-7~~~~~~~~~~~~~~66666666444444-4-|
A|--7~~~~~~~~~~~~2~~~~~~~~~~~~6-7~~~~~~~~~~~~~~44444444222222-2-|
E|--0-------------------------4-5~~~~~~~~~~~~~~-----------------|

Guitar 5

e|--------------------------------------------------------|
B|-------------9h10p9--------------9-10-12----10b/r-10-9--| first part is
G|---------9h11------11p9-----11~~~--------9~-------------|
D|--9h11h13--------------11p9-----------------------------|eight notetriplets
A|--------------------------------------------------------|
E|--------------------------------------------------------|

Guitar 4

e|-----------------------------------------------------------|
B|-----------------------------------------------------------|
G|---------------------------------6--7--9-----9--7--6-------|
D|-------------------------------7----------7----------7~~~--|
A|-----------------------------------------------------------|
E|-----------------------------------------------------------|

play notes at the same time as the notes above on guitar 5.


e|------------------------------------------------------------------|
B|------------------------------------------------------------------|
G|--9~-99~-99~xxxx--9-9-4x44-x44-44--------------66-x66-x44-x444x4--|
D|--9~-99~-99~xxxx--9-9-4x44-x44-44--------------66-x66-x44-x444x4--|
A|--7~-77~-77~xxxx--7-7-2x22-x22-22-7-7-77-77-77-44-x44-x22-x222x2--|
E|--0--00--00-------0-0-------------4-5-55-55-55--------------------|
PM                                           



CHORUS Guitar 1
e|--------------------------------------------------------------|
B|--------------------------------------------------------------|
G|--9~-99~-99~-99-9-4-44-44-4-4--------------6-------4-----4-4--|
D|--9~-99~-99~-99-9-4-44-44-4-4--------------6666666644444-4-4--|
A|--7~-77~-77~-77-7-2-22-22-2-2-7-7-77-77-77-4444444422222-2-2--|
E|--0--00--00--00-0-------------4-5-55-55-55-44444444-----------|
PM                                            ******* ****

"We do it in the dark

CHORUS Guitar 2



Suggest correction
Creating personal tab
Creating personal tab
You can edit any tab online and save it as your Personal.

You can edit, replace or remove any tab part or add personal notes – all changes will be seen only by you.

Personal tabs can be accessed anytime from any device, even offline.
Learn more »
comments
print report bad tab
36 comments total. Showing first comments.
0 reply
Julian K 82 Jan 08, 2007 10:32 AM

i saw this aol session like a week ago and wanted someone to tab it thank god you did. could you tab moan by cute is what we aim for PLEASE!!!

0 reply
MovalGuitarist 10 Jan 13, 2007 12:46 PM

Dude I saw you do this on youtube, this is pretty cool, is what they actually play on sessions?

+1 reply
pnkr0cker 2,010 Jan 13, 2007 02:39 PM

yeah they don't have the actual song for this yet

guest
You may want to rate the tab now too:
select rating
Wanna post a correction for this tab? Suggest correction