Oops, an error
Loading. Please wait.
We have an official Take Over The Breaks Over tab made by UG professional guitarists. Check out the tab »
×
6,210 views 6 this week
4 commentsread comments
1 2 3 4 5
x 3
add to favorites
×
Save as Personal and add changes to this tab that will be seen only by you. Learn more ›
×
You can save this tab as Personal to edit and correct it or add notes. All changes will be seen only by you. Learn more »
launch autoscroll
font size
0
reset
guitar tuner
edit
Autoscroll
slow
fast
+/-
esc
set tempo
stop
The Take Over, The Breaks Over
Infinity on High

I am sure this is 100% correct, but usually so is everyone else about theirs. Just to 
you know, this is all right, but ITS ALL ABOUT HOW YOU PICK (OR STRUM) THE BASS. (i picked 
the song by ear)

Verse x2 (0:25)
G|-----------------------------------|
D|-----------------------------------|
A|-44444444------------------22222-3-|
E|----------44444-3-22222222---------|


Watch your strumming on the chorus.

Chorus
G|--------------------------------------------------------------------|
D|--------------------------------------------------------------------|
A|--------------------------44444-2-------------------------4444-22-4-|
E|-55555555-77777-5-4444444---------5555555-77777-5-4444444-----------|


okay READ THIS!!! This verse is exactally like the beggining "except" you dont strum it 
same way. You do it almost like your bouncing up and down.

Verse x3
G|-----------------------------------|
D|-----------------------------------|
A|-4-4-4-4-------3-2-2-2-2-----------|
E|---------4-4-4-----------2-2-2-3---|


Now, your gonna go back into the NORMAL verse, just like in the begining.

Verse x2 (1:10)
G|-----------------------------------|
D|-----------------------------------|
A|-44444444------------------22222-3-|
E|----------44444-3-22222222---------|


Chorus
G|--------------------------------------------------------------------|
D|--------------------------------------------------------------------|
A|--------------------------44444-2-------------------------4444-22-4-|
E|-55555555-77777-5-4444444---------5555555-77777-5-4444444-----------|


Bridge (We do it in the dark...)
G|----------------------------------------|
D|----------------------------------------|
A|-7-77~-----------------4444444-22222222-|
E|-------7-77~-7-4-5-55~------------------|

This is the same "riff" except instead, you play it straight through.


Bridge Pt. 2
G|---------------------------------------------------------------------|
D|---------------------------------------------------------------------|
A|-7777777777777777----------------------------------44444444-22222222-|
E|------------------7777777777777-4-5555555555555555-------------------|

[Pause]


Solo x4
G|-----------------------------------|
D|-----------------------------------|
A|---------------------------44444-2-|
E|-55555555-77777-5-44444444---------|

[Pause]

Ending

x1
G|--------------------------------------------------|
D|--------------------------------------------------|
A|-7-77-77-77-------------------------4-44-42-22-22-|
E|------------7-77-77-77-4-5-55-55-55---------------|


x2
G|---------------------------------------------------------------------|
D|---------------------------------------------------------------------|
A|-7777777777777777----------------------------------44444444-22222222-|
E|------------------7777777777777-4-5555555555555555-------------------|


Enjoy. ;) Ohhhh yeah, this is my very very first tab, this took me a while to pick out. 
if you leave comments please leave nice ones.

            
            
Suggest correction
Creating personal tab
Creating personal tab
You can edit any tab online and save it as your Personal.

You can edit, replace or remove any tab part or add personal notes – all changes will be seen only by you.

Personal tabs can be accessed anytime from any device, even offline.
Learn more »
Give kudos to tab author, rate the tab!
1 2 3 4 5
comments
print report bad tab
4 comments total. Showing first comments.
-1 reply
pnkr0cker 2,033 Mar 13, 2008 04:59 PM

the intro is this

g|--6-6-6-6-----------------44-44-5--|
d|----------66-66-5-4-4-4-4----------|
a|-----------------------------------|
e|-----------------------------------|

+1 reply
pnkr0cker 2,033 Mar 13, 2008 05:01 PM

hey dont expect people to be nice in your comments, that makes u sound stupid. (see?) every gets bad comments sometimes!

0 reply
Clingo23 10 Apr 20, 2011 07:34 AM

no it's not, you dont play the intro at all. You play when he says Flash flash flash photography, this is right.

guest
Wanna post a correction for this tab? Suggest correction