Oops, an error
Loading. Please wait.
We have an official Take Over The Breaks Over tab made by UG professional guitarists. Check out the tab »
×
214 views 3 this week
no commentswrite comment
1 2 3 4 5
3 more votes to show rating
add to favorites
×
Save as Personal and add changes to this tab that will be seen only by you. Learn more ›
×
You can save this tab as Personal to edit and correct it or add notes. All changes will be seen only by you. Learn more »
launch autoscroll
font size
0
reset
how to read this tab
guitar tuner
edit
Autoscroll
slow
fast
+/-
esc
set tempo
stop
Author
Difficulty
intermediate
-------------------------------------------------------------------------------
              "The Take Over, The Breaks Over" - Fall Out Boy
-------------------------------------------------------------------------------
Tabbed by: Chris H.
E-mail: Chrisboy265@yahoo.com

Tuning: E standard
BPM: 150

************************************

| /   slide up
| \   slide down
| h   hammer-on
| p   pull-off
| ~   vibrato
| x   Mute note
| PM  Palm mute note
| b   Bend

************************************

Intro
Guitar 1
e|---------------------------------------------------------------------------|
B|---------------------------------------------------------------------------|
G|------4-----4---4------4-------------4-----4---4------4--------------------|
D|------------------------------------------------------------5--------------|  (Play x2)
A|--4-------4---4---------------5--------------------22---22--3--------------|
E|--------------------44---44---3---2------2----2----------------------------|

"...seasons change but people don't..."
e|---------------------------------------------------------------------------|
B|---------------------------------------------------------------------------|
G|------4-----4---4------4-------------4-----4---4------4--------------------|
D|------------------------------------------------------------5--------------|  (Play x2)
A|--4-------4---4---------------5--------------------22---22--3--------------|
E|--------------------44---44---3---2------2----2----------------------------|

Verse 1
(Guitar 1 continues)

Refrain
Guitar 3
"Don't pretend you ever forgot about me"                              "...wouldn't you rather be a..."

    PM---------------     ---------------     ---------------      -----------
e|---------------------------------------------------------------------------------------|
B|---------------------------------------------------------------------------------------|
G|--66666666-----------------------444444--5--66666666---------------------44444---------|
D|--6666666606666666---5--4444444--444444--5--66666666-666666---5--4444444444444-xx-6-xx-|
A|--44444444066666660--5--444444440222222--3--4444444406666660--5--4444444422222-xx-6-xx-|
E|-----------44444440--3--222222220-------------------04444440--3--22222222------xx-4-xx-|

Chorus
All Guitars
"...widow than a divorcee..."                                              "...don't pretend"
e|-------------------------------------------------------------------------------------------|
B|-------------------------------------------------------------------------------------------|
G|--2--22--222--44444--2------------66666\4-4--22--22--222--44444--2--------------6666--4--4-|
D|--2--22--222--44444--2--6-66-666--66666\4-4--22--22--222--44444--2--6--66--666--6666--4--4-|
A|--0--00--000--22222--0--6-66-666--44444\2-2--00--00--000--22222--0--6--66--666--4444--2--2-|
E|------------------------4-44-444------------------------------------4--44--444-------------|

Verse 2
(Guitar 1 repeats verse 1)

Guitar 2
"...head can be a prison..."
e|---------------------------------------------------------------------------|
B|---------------------------------------------------------------------------|
G|--9--9--9--13--11--11--11--8/9--9--9--13--11--11--11--8/9------------------|
D|--x--x--x--x---x---x---x---x-x--x--x--x---x---x---x---x-x------------------|
A|--7--7--7--11--9---9---9---6/7--7--7--11--9---9---9---6/7------------------|
E|---------------------------------------------------------------------------|

e|---------------------------------------------------------------------------|
B|---------------------------------------------------------------------------|
G|--9--9--13--11--11--11--8/9--9--9--13--11--11--11--14\13-------------------|
D|--x--x--x---x---x---x---x-x--x--x--x---x---x---x---x--x--------------------|
A|--7--7--11--9---9---9---6/7--7--7--11--9---9---9---12\11-------------------|
E|---------------------------------------------------------------------------|

Refrain
Guitar 3
"Don't pretend you ever forgot about me"

Chorus
All Guitars
"Wouldn't you rather be a widow..."

Bridge
All Guitars
"We do it in the dark..."
e|-------------------------------------------------------------------------------------|
B|-------------------------------------------------------------------------------------|
G|-------------------------------4---4-4-x-x-x-x-x-x-4-----2---2-2-x-x-x-x-x-x-x-x-x-x-|
D|--2---2-2--x-x-x-x-x-x-x-x-x-x-4---4-4-x-x-x-x-x-x-4--6--2---2-2-x-x-x-x-x-x-x-x-x-x-|
A|--2---2-2--x-x-x-x-x-x-x-x-x-x-2---2-2-x-x-x-x-x-x-2--6--0---0-0-x-x-x-x-x-x-x-x-x-x-|
E|--0---0-0--x-x-x-x-x-x-x-x-x-x------------------------4------------------------------|

"In secret places..."
e|---------------------------------|
B|---------------------------------|
G|--6--x-x-x-x-x-x--4---------4x4--|
D|--6--x-x-x-x-x-x--4---------4x4--|
A|--4--x-x-x-x-x-x--2-x-x-x-x-2x2--|
E|---------------------------------|

"We do it in the dark..."
e|---------------------------------------------------------------------------|
B|---------------------------------------------------------------------------|
G|--------------------------4---4-4---4-4---4-4-----2---2-2---2-2---2-2------|
D|--2---2-2---2-2---2-2--2--4---4-4---4-4---4-4--6--2---2-2---2-2---2-2------|
A|--2---2-2---2-2---2-2--2--2---2-2---2-2---2-2--6--0---0-0---0-0---0-0------|
E|--0---0-0---0-0---0-0--0-----------------------4---------------------------|

"In secret places..."
      PM ---------------------
e|----------------------------------|
B|----------------------------------|
G|--x-6--6-6-6-6-6-6-4-4-4-4-4-4x4--|
D|--x-6--6-6-6-6-6-6-4-4-4-4-4-4x4--|
A|--x-4--4-4-4-4-4-4-2-2-2-2-2-2x2--|
E|----------------------------------|

(Guitar 1 repeats Verse 1)

Solo Part 1
Guitar 2
"We don't fight fair!"
  PM-------
e|---------------------------------------------------------------------------|
B|---------------------------------------------------------------------------|
G|---------------------------------------------------------------------------|
D|--------------2h4-7--6-6--4-6--9-7-6-1--2----------------------------------|
A|--2-2-2-2-2h4-----------------------------2/4-2----------------------------|
E|---------------------------------------------------------------------------|


e|---------------------------------------------------------------------------|
B|---------------------------------------------------------------------------|
G|---------------------------------------------------------------------------|
D|--------2h4-7--6-6--4-6--9-7-6--2-4-6-6/11-9-------------------------------|
A|--2-2h4--------------------------------------------------------------------|
E|---------------------------------------------------------------------------|

Solo Part 1
Guitar 1 (background)
e|---------------------------------------------------------------------------|
B|---------------------------------------------------------------------------|
G|--2-2-22--4-4-44--22----------6-6-66\4-4-----------------------------------|   (x2)
D|--2-2-22--4-4-44--22--6-6-66--6-6-66\4-4-----------------------------------|
A|--0-0-00--2-2-22--00--6-6-66--4-4-44\2-2-----------------------------------|
E|----------------------4-4-44-----------------------------------------------|

Guitar 3 (after Guitar 1 plays x1)
e|---------------------------------------------------------------------------|
B|----------------------------12---------------14-12-------------------------|
G|-------9h11-14--1313--9-13-----14-13-9-11-13-------------------------------|
D|--9h11---------------------------------------------------------------------|
A|---------------------------------------------------------------------------|
E|---------------------------------------------------------------------------|

Solo Part 2
Guitar 3
e|---------------------------------------------------------------------------|
B|----12--12-----12---7b------12---12-----12---9b----------------------------|
G|--9---9----9-8----8-----8--6----8----9-9-----9-----------------------------|
D|---------------------------------------------------------------------------|
A|---------------------------------------------------------------------------|
E|---------------------------------------------------------------------------|

e|---------------------------------------------------------------------------|
B|----12--12-----12---7b-----------------------------------------------------|
G|--9---9----9-8----8-----8--6--/8-/9-/11-11-11-11~-11\9-9-------------------|
D|---------------------------------------------------------------------------|
A|---------------------------------------------------------------------------|
E|---------------------------------------------------------------------------|

Solo Part 2
Guitar 2 joins guitar 1)

Outro
(Guitar 1 repeats bridge until end of song)

Guitar 2 (After Guitar 1 plays bridge x1)
e|---------------------------------------------------------------------------|
B|-------------------9-10-9--------------------------------------------------|
G|------------8-9-11--------11-9-8-----------------9----11/16--13----11------|
D|--2-----9-11----------------------11-9-----6-7------9----------------------|
A|--2------------------------------------------------------------------------|
E|--0------------------------------------------------------------------------|

Guitar 3 (After Guitar 1 plays bridge x1)
                                                        PM-------------
e|---------------------------------------------------------------------------|
B|---------------------------------------------------------------------------|
G|-----------------4-----------------2------------6-----4-4-4-4-4-4-4-4-4~---|
D|--2--------------4--------------6--2------------6-----4-4-4-4-4-4-4-4-4~---|
A|--2--------------2--------------6--0------------4-----2-2-2-2-2-2-2-2-2~---|
E|--0-----------------------------4------------------------------------------|

All Guitars repeat Bridge until end


This is my first tab ever, so please feel free to correct mistakes if any.
Suggest correction
Creating personal tab
Creating personal tab
You can edit any tab online and save it as your Personal.

You can edit, replace or remove any tab part or add personal notes – all changes will be seen only by you.

Personal tabs can be accessed anytime from any device, even offline.
Learn more »
Give kudos to tab author, rate the tab!
1 2 3 4 5
comments
print report bad tab
guest
You may want to rate the tab now too:
select rating
Wanna post a correction for this tab? Suggest correction