Oops, an error
Loading. Please wait.

Tell That Mick He Just Made My List Of Things To Do Today Tab

version 1
version 1

Whole song

Interactive

11,661 views 15 this week
15 commentsread comments
1 2 3 4 5
accurate
x 9
add to favorites
launch autoscroll
font size
0
reset
how to read this tab
guitar tuner
Autoscroll
slow
fast
+/-
esc
set tempo
stop
Help us to improve Ultimate-Guitar.com Take our survey!
×
Author
Fall Out Boy
Tell That Mick He Just Made My List of Things to do Today
Tabbed by Kellen

x=quick stop
/=slide
~=let ring

Standard Tuning

Intro
E|-----------------
B|-----------------
G|-----------------
D|-2222222222222222
A|-2222222222222222
E|-0000000000000000

Then

E|-4444-5555-0000-2222-0000-2222-0000-2222
B|-5555-5555-4444-4444-2222-2222-2222-2222
G|----------------------------------------
D|----------------------------------------
A|----------------------------------------
E|----------------------------------------

One guitar does that twice, then at second guitar comes in with a pickslide then this

E|-----------------------------------
B|-----------------------------------
G|------------------44444444-66666666
D|-22~--22-22222222-44444444-66666666
A|-22~--22-22222222-22222222-44444444
E|-00~--00-00000000------------------
           |       palm  mute        |

Verse  x4  "light that smoke..."
E|-------------------------------------
B|-------------------------------------
G|----------66666666-------------------
D|-22222222-66666666-66666666-7777777/9
A|-22222222-44444444-66666666-7777777/9
E|-00000000----------44444444-5555555/7

Next part  x2  "I hope you choke..."  
E|----------------------------------------
B|----------------------------------------
G|-----------6666-6666--------------------
D|-2222-2222-6666-6666-7777-7777-7777-7777
A|-2222-2222-4444-4444-7777-7777-7777-7777
E|-0000-0000-----------5555-5555-5555-5555

Pre chorus  x2  "lets play this game..."
E|-------------------------------------------------------------------
B|-------------------------------------------------------------------
G|-2222222222222222-66666666-44444444-2222222222222222-666-444-6/4444
D|-2222222222222222-66666666-44444444-2222222222222222-666-444-6/4444
A|-0000000000000000-44444444-22222222-0000000000000000-444-222-4/2222
E|-------------------------------------------------------------------

Chorus  x2  "so bury me in memory..."
E|--- 0----0----0----------
B|----0----0----0----------
G|------66-----------------
D|-22---66---66---77-7/9999
A|-22---44---66---77-7/9999
E|-00--------44---55-5/7777

Play this two more times
E|-4444-5555-0000-2222-0000-2222-0000-2222
B|-5555-5555-4444-4444-2222-2222-2222-2222
G|----------------------------------------
D|----------------------------------------
A|----------------------------------------
E|----------------------------------------

No guitar until  "breaking hearts..." then you play this again with the same
timing as the first time you played it



E|-----------------------------------
B|-----------------------------------
G|------------------44444444-66666666
D|-22~--22-22222222-44444444-66666666
A|-22~--22-22222222-22222222-44444444
E|-00~--00-00000000------------------
           |       palm  mute        |

Pre Chorus

Chorus

Now he sings the chorus again, but he plays the verse(x2) over it

One guitar does this

E|----------
B|----------
G|----------
D|-2~---222~
A|-2~---222~
E|-0~---000~

And lets the last chord ring while the other does this once

E|-4444-5555-0000-2222-0000-2222-0000-2222
B|-5555-5555-4444-4444-2222-2222-2222-2222
G|----------------------------------------
D|----------------------------------------
A|----------------------------------------
E|----------------------------------------

Then does it again but stops abruptly

E|-4444-5555-0000-2222-0000-2222-0000-2x
B|-5555-5555-4444-4444-2222-2222-2222-2x
G|--------------------------------------
D|--------------------------------------
A|--------------------------------------
E|--------------------------------------

Then do this 4 more times

E|-4444-5555-0000-2222-0000-2222-0000-2222
B|-5555-5555-4444-4444-2222-2222-2222-2222
G|----------------------------------------
D|----------------------------------------
A|----------------------------------------
E|----------------------------------------

And let this chord ring as the last vocals are said

E|---
B|---
G|---
D|-2~
A|-2~
E|-0~

Corrections or comments, email me at kgator86@msn.com
This is prob my fav Fall Out Boy song
Suggest correction
What's this?
You can suggest a correction to this tab. Community and Mods will review your correction and vote to approve or reject it.
comments
print report bad tab
15 comments total. Showing first comments.
0 reply
wishiwasstump 125 wrote on October 20 2004, 12:00 am

e------------------------
b-------7-5--------4h5-5-
g-x-9-x-----x-9-x--------
d-x-9-x-----x-9-x--------
A-x-7-x-----x-7-x--------
E------------------------


e-----------------------
b-------7-5-------5p4-0-
g-x-9-x-----x-9-x-------
d-x-9-x-----x-9-x-------
A-x-7-x-----x-7-x-------
E-----------------------


e-----------------------------
b-5p4h5p4h5p4h5p4h5p4h5p4h5p4-
g-----------------------------
d-----------------------------
A-----------------------------
E-----------------------------

0 reply
wishiwasstump 125 wrote on November 19 2004, 12:00 am

found another better way to play that part ^

------------------------------------------
------------------------------------------
--9-9-9---11/9---9-9-9---8/9-9----
--x-x-x------x-x---x-x-x----x-x-x----
--7-7-7-----9/7---7-7-7---6-7-7---
-------------------------------------------
* * * *

-------------------------------------------
-------------------------------5p4-0----
--9-9-9---11/9---9-9-9---------------
--x-x-x------x-x---x-x-x----------------
--7-7-7-----9/7---7-7-7---------------
--------------------------------------------
* * * *

/ slide
* palm mute

0 reply
Gibsonguy64 98 wrote on January 19 2005, 12:00 am

theres a little guitar fill after the intro its really awsome u should figure it out!

guest
You may want to rate the tab now too:
select rating
Please do not post tabs as comments. Select "correction" instead!