Oops, an error
Loading. Please wait.

Tell That Mick He Just Made My List Of Things To Do Today tab

version 3
version 3

Whole song

Interactive

32,013 views 45 this week
11 commentsread comments
1 2 3 4 5
x 21
add to favorites
×
Save as Personal and add changes to this tab that will be seen only by you. Learn more ›
×
You can save this tab as Personal to edit and correct it or add notes. All changes will be seen only by you. Learn more »
launch autoscroll
font size
0
reset
how to read this tab
guitar tuner
edit
Autoscroll
slow
fast
+/-
esc
set tempo
stop
Song: Tell That Mick He Just Made My List of Things to do Today
Artist: Fall Out Boy
Album: Take This to Your Grave
Tuning: Standard

Okay, I'm gonna tab it because the only other one that has a 4 star has parts missing
is slightly off.

|-----|
|Intro|
|-----|

Guitar 1
E----------------------------------------------------------------|
B----------------------------------------------------------------|
G-99999999999999999----------------------------------------------|
D-99999999999999999----------------------------------------------|
A-77777777777777777----------------------------------------------|
E----------------------------------------------------------------|

Guitar 2
E----------------------------------------------------------------|
B----------------------------------------------------------------|
G----------------------------------------------------------------|
D-22222222222222222x---------------------------------------------|
A-22222222222222222x---------------------------------------------|
E-00000000000000000x---------------------------------------------|

Guitar 1 plays this alone for 2 measures
E----------------------------------------------------------------|x4
B-999910101010-77779999-55557777-55557777------------------------|
G-9999-9-9-9-9-88888888-66666666-66666666------------------------|
D----------------------------------------------------------------|
A----------------------------------------------------------------|
E----------------------------------------------------------------|

After 2 measures of that guitar 2 plays this
E----------------------------------------------------------------|
B----------------------------------------------------------------|
G---------------------------------44444444-66666666--------------|
D-------------22~-----22-22222222-44444444-66666666---7p6--------|
A-/---------/-22~-----22-22222222-22222222-44444444------7-------|
E-/pickslide/-00~-----00-00000000-------------------7------------|
pm                       ........ ........ ..     This little fill
                                                  is played right
                                                  before the verse
|-------|                                         starts.
|Verse 1|
|-------|

Both guitars
E----------------------------------------------------------------|x4
B----------------------------------------------------------------|
G----------6-66-666----------------------------------------------|
D-2-22-222-6-66-666-6-66-666-7-77-77/9---------------------------|
A-2-22-222-4-44-444-6-66-666-7-77-77/9---------------------------|
E-0-00-000----------4-44-444-5-55-55/7---------------------------|
"Light that smoke..."

After 2 measures of that, guitar 2 plays this instead.
E----------------------------------------------------------------|
B----------------------------------------------------------------|
G-9-99-999-18-1818-181818-13-1313-131313-14-1414-1414/16---------|
D-x-xx-xxx--x--x-x--x-x-x--x--x-x--x-x-x--x--x-x--x-x--x---------|
A-7-77-777-16-1616-161616-11-1111-111111-12-1212-1212/14---------|
E----------------------------------------------------------------|

E----------------------------------------------------------------|
B----------------------------------------------------------------|
G-9-99-999-16-1616-161616-16161616161616161616161616161616-------|
D-x-xx-xxx--x--x-x--x-x-x--x-x-x-x-x-x-x-x-x-x-x-x-x-x-x-x-------|
A-7-77-777-14-1414-141414-14141414141414141414141414141414-------|
E----------------------------------------------------------------|


|----------------|
|Pre-Chorus pt. 1|
|----------------|

Guitar 1
E----------------------------------------------------------------|x2
B----------------------------------------------------------------|
G-9-99-9998-88-8889-99-9998-88-8889-99-9998----8h9p8-------------|
D-9-99-9999-99-9999-99-9999-99-9999-99-9999-8h9-----9------------|
A----------------------------------------------------------------|
E----------------------------------------------------------------|
"I hope you choke..."

Guitar 2(comes in on "Now ask yourself...")
E------------------------------|---------------------------------|
B------------------------------|---------------------------------|
G---8-898---8-898--------------|-9p8h9p8h9p8h9p8h9p8h9p8h9p8-----|
D-99-----9-9-----9-------------|---------------------------------|
A------------------------------|---------------------------------|
E------------------------------|---------------------------------|
pm... .... .. ....             x3


|----------------|
|Pre-Chorus Pt. 2|
|----------------|

Guitar 1
E-------------------------------------------------------------------------|
B-------------------------------------------------------------------------|
G-------------------6-66-666\4-44-44/6-------------------6666-4444-444/6--|
D-7-77-777-7-77-777-6-66-666\4-44-44/6-7-77-777-7-77-777-6666-4444-444/6--|
A-7-77-777-7-77-777-4-44-444\2-22-22/4-7-77-777-7-77-777-4444-2222-222/4--|
E-5-55-555-5-55-555--------------------5-55-555-5-55-555------------------|
Guitar 2 is basically the same. Play the same until here^

The last section changes to...
E----------------------------------------------------------------|
B----------------------------------------------------------------|
G---77777-6/77777-6/7777-----------------------------------------|
D---xxxxx-x-xxxxx-x-xxxx-----------------------------------------|
A---55555-4/55555-4/5555-----------------------------------------|
E----------------------------------------------------------------|


|--------|
|Chorus 1|
|--------|

Both guitars
E----0----0----0----------------------------------------------------|x2
B----0----0----0----------------------------------------------------|
G------66-----------------------------------------------------------|
D-22---66---66---77-7/9999------------------------------------------|
A-22---44---66---77-7/9999------------------------------------------|
E-00--------44---55-5/7777------------------------------------------|


|---------| For guitar 2 during the pre-verse, just
|Pre-verse| play the first part of the verse and
|---------| let the last open E power chord ring.

Guitar 2
E----------------------------------------------------------------|
B-999910101010-77779999-55557777-55557777------------------------|
G-9999-9-9-9-9-88888888-66666666-66666666------------------------|
D----------------------------------------------------------------|
A----------------------------------------------------------------|
E----------------------------------------------------------------|

                                  singing starts here
                                           |
                                           v
E----------------------------------------------------------------|
B-999910101010-77779999-55557777-5-55-557/9----------------------|
G-9999-9-9-9-9-88888888-66666666-6-66-666/9----------------------|
D----------------------------------------------------------------|
A----------------------------------------------------9\----------|
E----------------------------------------------------------------|

Guitar 1
E----------------------------------------------------------------|
B----------------------------------------------------------------|
G--------------------------66666666------------------------------|
D-2222-2~-----2-2-22222222-66666666-66666666-7777-9999-----------|
A-2222-2~-----2-2-22222222-44444444-66666666-7777-9999-----------|
E-0000-0~-----0-0-00000000----------44444444-5555-7777-----------|
pm....            ........ ........ ........


After this play the pre-chorus only with both guitars playing guitar 1's part. In other 
no octives during it.


|--------|
|Chorus 2|
|--------|

Both Guitars
E----0----0----0----------------------------------------------------|
B----0----0----0----------------------------------------------------|
G------66-----------------------------------------------------------|
D-22---66---66---77-7/9999------------------------------------------|
A-22---44---66---77-7/9999------------------------------------------|
E-00--------44---55-5/7777------------------------------------------|

Now he sings the chorus again, but just play the verse part under it
and let the last open E power chord ring.


|------|
|Bridge|
|------|


Guitar 2
E----------------------------------------------------------------|
B----------------------------------------------------------------|
G----------------------------------------------------------------|
D-2~-----222~----------------------------------------------------|
A-2~-----222~----------------------------------------------------|
E-0~-----000~----------------------------------------------------|

Guitar 1
E----------------------------------------------------------------|
B---999910101010-77779999-55557777-55557777----------------------|
G-999999-9-9-9-9-88888888-66666666-66666666----------------------|
D----------------------------------------------------------------|
A----------------------------------------------------------------|
E----------------------------------------------------------------|
pm..

E----------------------------------------------------------------|
B-999910101010-77779999-55557777-55555x--------------------------|
G-9999-9-9-9-9-88888888-66666666-66666x--------------------------|
D----------------------------------------------------------------|
A----------------------------------------------------------------|
E----------------------------------------------------------------|

Now play this 4 more times
E----------------------------------------------------------------|
B-999910101010-77779999-55557777-55557777------------------------|
G-9999-9-9-9-9-88888888-66666666-66666666------------------------|
D----------------------------------------------------------------|
A----------------------------------------------------------------|
E----------------------------------------------------------------|

Guitar 2 comes in after 2 measures and plays this little part.

E----------------------------------------------------------------|
B----------------------------------------------------------------|
G----8-8h9p8---998-8h9p8---7-7h8p7-87-7h8p7----------------------|
D--99-9-----9------------88-8------------------------------------|
A----------------------------------------------------------------|
E----------------------------------------------------------------|

E----------------------------------------------------------------|
B---------9------8h9p8---------8--------8-8----------------------|
G----8-898----8------------8-89-9--98-98-8-----------------------|
D--99-9-----99-9---------99-9-----9------------------------------|
A----------------------------------------------------------------|
E----------------------------------------------------------------|


|------|
|Ending|
|------|

This is where he sings the chorus one more time with just one guitar playing in the background.

E---0---0---0----------------------------------------------------|
B---0---0---0----------------------------------------------------|
G----------------------------------------------------------------|
D-------------7~-------------------------------------------------|
A-----4-------7~-------------------------------------------------|
E-0-------4---5~-------------------------------------------------|


AND THAT'S IT! I'm almost positive thats 99% correct. Bridge might be slightly off still.
If you have any questions or suggestions, e-mail me at SaintJimmy10@yahoo.com Thanks and
rate it.

            
            
Suggest correction
Creating personal tab
Creating personal tab
You can edit any tab online and save it as your Personal.

You can edit, replace or remove any tab part or add personal notes – all changes will be seen only by you.

Personal tabs can be accessed anytime from any device, even offline.
Learn more »
comments
print report bad tab
11 comments total. Showing first comments.
+5 reply
SaintJimmy105 341 Feb 26, 2006 02:34 PM

Well, I hardly think my tab deserves a 2 star for that. You have to admit that its more accurate than the other 4 star there is. Either way, its your rating.

+1 reply
Alex Barrera 31 Aug 20, 2006 09:40 AM

its a guitar tab...he doesnt need bass notes. anyways, i think its almost perfect...i play it from this tab every time

0 reply
hitormiss905 10 Apr 15, 2007 09:04 AM

Does anyone have any practice tips for the intro. I keep finding myself strumming the 1st and 4th strings when i'm just trying to get the 2nd and 3rd. any advice would be helpful. thanks

guest
You may want to rate the tab now too:
select rating
Wanna post a correction for this tab? Suggest correction