Oops, an error
Loading. Please wait.

The Kids Arent Alright bass

version 2
version 2

Whole song

  • The following tab is a complete bass tab of "The K... Show more

Interactive

31 views 3 this week
no commentswrite comment
1 2 3 4 5
3 more votes to show rating
add to favorites
×
Save as Personal and add changes to this tab that will be seen only by you. Learn more ›
×
You can save this tab as Personal to edit and correct it or add notes. All changes will be seen only by you. Learn more »
launch autoscroll
font size
0
reset
guitar tuner
edit
Autoscroll
slow
fast
+/-
esc
set tempo
stop
Author
Difficulty
About this tab version
The following tab is a complete bass tab of "The Kids Aren't Alright" by Fall Out Boy. The song is not changed in any way and is consistent with the original recording (https://www.youtube.com/watch?v=lLzDQNbhHYs). Was this info helpful? Yes No
[Intro]
(0:00)
G|---------------------------------------------------------------------------|
D|---------------------------------------------------------------------------|
A|---------------------------------------------------------------------------|
E|14-14-14-14-14-14-14-14-14-14-14-14-14-14-14-14-7-7-7-7-7-7-7-7-7-7-7-7-7-7|

G|---------------------------------------------------------------------------|
D|---------------------------------------------------------------------------|
A|---------------------------------------------------------------------------|
E|11-11-11-11-11-11-11-11-11-11-11-11-11-11-11-11-7-7-7-7-7-7-7-7-7-7-7-7-7-7|

[Verse]
0:16 [Stuck in the jet wash...] x2
G|---------------------------------------------------------------------------|
D|---------------------------------------------------------------------------|
A|---------------------------------------------------------------------------|
E|14-14-14-14-14-14-14-14-14-14-14-14-14-14-14-14-7-7-7-7-7-7-7-7-7-7-7-7-7-7|

G|---------------------------------------------------------------------------|
D|---------------------------------------------------------------------------|
A|---------------------------------------------------------------------------|
E|11-11-11-11-11-11-11-11-11-11-11-11-11-11-11-11-7-7-7-7-7-7-7-7-7-7-7-7-7-7|

[Pre-Chorus]
0:49 [And with the black banners raised...]
G|---------------------------------------------------------------------------|
D|9-9-9-9-9-9-11-11-------------------------9-9-9-9-9-9-11-11----------------|
A|---------------------------------------------------------------------------|
E|------------------11-11-11-11-11-11-11-11-------------------11-11-11-11-11-|

G|---------------------------------------------------------------------------|
D|---------9-9-9-9-9-9-11-11-------------------------------------------------|
A|---------------------------------------------------------------------------|
E|11-11-11-------------------/11-11-11-11-11-11-11-11-9-9-9-9-9-9-9-9- Mute -|

[Chorus 1]
1:06 [And in the end...] x2
G|---------------------------------------------------------------------------|
D|---------------------------------------------------------------------------|
A|---------------------------------------------------------------------------|
E|2-2-2-2-2-2-2-2-2-2-2-2-2-2-2-2-7-7-7-7-7-7-7-7-7-7-7-7-7-7-7-7-11-11-11-11|

G|---------------------------------------------------------------------------|
D|---------------------------------------------------------------------------|
A|---------------------------------------------------------------------------|
E|11-11-11-11-11-11-11-11-11-11-11-11-7-7-7-7-7-7-7-7-7-7-7-7-7-7-7-7-[2nd-2]|

[Verse]
1:48 [I'm not passive, but aggressive...] x2
G|---------------------------------------------------------------------------|
D|---------------------------------------------------------------------------|
A|---------------------------------------------------------------------------|
E|14-14-14-14-14-14-14-14-14-14-14-14-14-14-14-14-7-7-7-7-7-7-7-7-7-7-7-7-7-7|

G|---------------------------------------------------------------------------|
D|---------------------------------------------------------------------------|
A|---------------------------------------------------------------------------|
E|11-11-11-11-11-11-11-11-11-11-11-11-11-11-11-11-7-7-7-7-7-7-7-7-7-7-7-7-7-7|

[Pre-Chorus]
2:21 [And I still feel that rush in my veins...]
G|---------------------------------------------------------------------------|
D|9-9-9-9-9-9-11-11-------------------------9-9-9-9-9-9-11-11----------------|
A|---------------------------------------------------------------------------|
E|------------------11-11-11-11-11-11-11-11-------------------11-11-11-11-11-|

G|---------------------------------------------------------------------------|
D|---------9-9-9-9-9-9-11-11-------------------------------------------------|
A|---------------------------------------------------------------------------|
E|11-11-11-------------------/11-11-11-11-11-11-11-11-9-9-9-9-9-9-9-9- Mute -|

[Chorus 1]
2:37 [And in the end...] x2
G|---------------------------------------------------------------------------|
D|---------------------------------------------------------------------------|
A|---------------------------------------------------------------------------|
E|2-2-2-2-2-2-2-2-2-2-2-2-2-2-2-2-7-7-7-7-7-7-7-7-7-7-7-7-7-7-7-7-11-11-11-11|

G|---------------------------------------------------------------------------|
D|---------------------------------------------------------------------------|
A|---------------------------------------------------------------------------|
E|11-11-11-11-11-11-11-11-11-11-11-11-7-7-7-7-7-7-7-7-7-7-7-7-7-7-7-7-[2nd-2]|

[Bridge]
3:10 [And sometimes I just wanna...]
G|---------------------------------------------------------------------------|
D|---------------------------------------------------------------------------|
A|6-6-6-6-6-6-6 6-/-9-9-9-9-9-9-9-9--------------------------9---9-----------|
E|----------------------------------\7-7-7-7-7-7-7-7-7-7-7-7---7---7-11------|

G|---------------------------------------------------------------------------|
D|---------------------------------------------------------------------------|
A|6-6-6-6-6-6-6 6-/-9-9-9-9-9-9-9-9--------------------------9---9-----------|
E|----------------------------------\7-7-7-7-7-7-7-7-7-7-7-7---7---7-11------|

[Chorus 2]
3:27 [And in the end...]
G|---------------------------------------------------------------------------|
D|---------------------------------------------------------------------------|
A|---------------------------------------------------------------------------|
E|14-14-14-14-14-14-14-14-14-14-14-14-14-14-14-14-7-7-7-7-7-7-7-7-7-7-7-7-7-7|

G|---------------------------------------------------------------------------|
D|---------------------------------------------------------------------------|
A|---------------------------------------------------------------------------|
E|11-11-11-11-11-11-11-11-11-11-11-11-11-11-11-11-7-7-7-7-7-7-7-7-7-7-7-7-7-7|

[Chorus 1]
3:43 [And I'll be yours...]
G|---------------------------------------------------------------------------|
D|---------------------------------------------------------------------------|
A|---------------------------------------------------------------------------|
E|2-2-2-2-2-2-2-2-2-2-2-2-2-2-2-2-7-7-7-7-7-7-7-7-7-7-7-7-7-7-7-7-11-11-11-11|

G|---------------------------------------------------------------------------|
D|---------------------------------------------------------------------------|
A|---------------------------------------------------------------------------|
E|11-11-11-11-11-11-11-11-11-11-11-11-7-7-7-7-7-7-7-7-7-7-7-7-7-7-7-7-[2nd-2]|

[Outro]
G|---------------------------------------------------------------------------|
D|---------------------------------------------------------------------------|
A|---------------------------------------------------------------------------|
E|2-2-2-2-2-2-2-2-2-2-2-2-2-2-2-2-7-7-7-7-7-7-7-7-7-7-7-7-7-7-7-7-11-11-11-11|

G|---------------------------------------------------------------------------|
D|---------------------------------------------------------------------------|
A|---------------------------------------------------------------------------|
E|11-11-11-11-11-11-11-11-11-11-11-11-7--------------------------------------|



************************************

| /  Slide up
| \  Slide down

************************************

            
            
Suggest correction
Creating personal tab
Creating personal tab
You can edit any tab online and save it as your Personal.

You can edit, replace or remove any tab part or add personal notes – all changes will be seen only by you.

Personal tabs can be accessed anytime from any device, even offline.
Learn more »
Give kudos to tab author, rate the tab!
1 2 3 4 5
comments
print report bad tab
guest
You may want to rate the tab now too:
select rating
Wanna post a correction for this tab? Suggest correction