Oops, an error
Loading. Please wait.

The Patron Saint Of Liars And Fakes bass

version 1
version 1

Whole song

Interactive

3,400 views 1 this week
4 commentsread comments
1 2 3 4 5
x 4
add to favorites
×
Save as Personal and add changes to this tab that will be seen only by you. Learn more ›
×
You can save this tab as Personal to edit and correct it or add notes. All changes will be seen only by you. Learn more »
launch autoscroll
font size
0
reset
guitar tuner
edit
Autoscroll
slow
fast
+/-
esc
set tempo
stop
The Patron Saint of lairs and fakes- bass tab

Drop D

Bass comes in after one bar of the guitar line

Intro
G|------------------------------------------|
D|------------------------------------------| x3
A|------------------------------------------|
D|0-0-0--0-0-8-8-8-8-3-3-3-3-3-3-2-2-2-2-2-2|

G|-------|
D|-------|
A|-------|
D|0-0-0-0|

Verse 1

"I'm holding..."
G|-----------------------------------------------|
D|-----------------------------------------------|
A|-----------------------------------------------|
D|3-3-3-3-3-3-0-0-0-0-0-0-7-7-7-7-7-7-8-8-8-8-8-8|

"Too every..."
G|-----------------------------------------------|
D|-----------------------------------------------|
A|-----------------------------------------------|
D|2-2-2-2-2-2-3-3-3-3-3-3-8-8-8-8-8-8-8-8-8-8-8-8|

"I pulled..."
G|-----------------------------------------------|
D|-----------------------------------------------|
A|-----------------------------------------------|
D|3-3-3-3-3-3-0-0-0-0-0-0-7-7-7-7-7-7-8-8-8-8-8-8|

"You through..."
G|-----------------------------------------------|
D|-----------------------------------------------|
A|-----------------------------------------------|
D|2-2-2-2-2-2-3-3-3-3-3-3-8-8-8-8-8-8-8-8-8-8-8-8|

Chorus

"And when..."
G|-----------------------------------------------------|
D|-----------------------------------------------------|
A|------------8-8-8-8-8-8------------------------------|
D|8-8-8-8-8-8-------------0-0-0-0-0-0-10-10-10-10-10-10|

"Me your..."
G|-----------------------------------------------------------|
D|-----------------------------------------------------------|
A|------------8-8-8-8-8-8------------------------------------|
D|8-8-8-8-8-8-------------10-10-10-10-10-10-10-10-10-10-10-10|

"And when..."
G|-----------------------------------------------------|
D|-----------------------------------------------------|
A|------------8-8-8-8-8-8------------------------------|
D|8-8-8-8-8-8-------------0-0-0-0-0-0-10-10-10-10-10-10|

"Me your..."
G|-----------------------------------------------------------|
D|-----------------------------------------------------------|
A|------------8-8-8-8-8-8------------------------------------|
D|8-8-8-8-8-8-------------10-10-10-10-10-10-10-10-10-10-10-10|

Pre-Verse
G|------------------------------------------|
D|------------------------------------------|
A|------------------------------------------|
D|0-0-0--0-0-8-8-8-8-3-3-3-3-3-3-2-2-2-2-2-2|

G|--------------------------------|
D|--------------------------------|
A|--------------------------------|
D|0-0-0--0-0-8-8-8-8-3-3-3-3-3-3-2|


Verse 2

"I'm all..."
G|-----------------------------------------------|
D|-----------------------------------------------|
A|-----------------------------------------------|
D|3-3-3-3-3-3-0-0-0-0-0-0-7-7-7-7-7-7-8-8-8-8-8-8|

"Too hear..."
G|-----------------------------------------------|
D|-----------------------------------------------|
A|-----------------------------------------------|
D|2-2-2-2-2-2-3-3-3-3-3-3-8-8-8-8-8-8-8-8-8-8-8-8|

"Too look..."
G|-----------------------------------------------|
D|-----------------------------------------------|
A|-----------------------------------------------|
D|3-3-3-3-3-3-0-0-0-0-0-0-7-7-7-7-7-7-8-8-8-8-8-8|

"But I..."
G|-----------------------------------------------|
D|-----------------------------------------------|
A|-----------------------------------------------|
D|2-2-2-2-2-2-3-3-3-3-3-3-8-8-8-8-8-8-8-8-8-8-8-8|

Chorus

"And when..."
G|-----------------------------------------------------|
D|-----------------------------------------------------|
A|------------8-8-8-8-8-8------------------------------|
D|8-8-8-8-8-8-------------0-0-0-0-0-0-10-10-10-10-10-10|

"Me your..."
G|-----------------------------------------------------------|
D|-----------------------------------------------------------|
A|------------8-8-8-8-8-8------------------------------------|
D|8-8-8-8-8-8-------------10-10-10-10-10-10-10-10-10-10-10-10|

"And when..."
G|-----------------------------------------------------|
D|-----------------------------------------------------|
A|------------8-8-8-8-8-8------------------------------|
D|8-8-8-8-8-8-------------0-0-0-0-0-0-10-10-10-10-10-10|

"Me your..."
G|-----------------------------------------------------------|
D|-----------------------------------------------------------|
A|------------8-8-8-8-8-8------------------------------------|
D|8-8-8-8-8-8-------------10-10-10-10-10-10-10-10-10-10-10-10|

"And when..."
G|-----------------------------------------------------|
D|-----------------------------------------------------|
A|------------8-8-8-8-8-8------------------------------|
D|8-8-8-8-8-8-------------0-0-0-0-0-0-10-10-10-10-10-10|

"Me your..."
G|-----------------------------------------------------------|
D|-----------------------------------------------------------|
A|------------8-8-8-8-8-8------------------------------------|
D|8-8-8-8-8-8-------------10-10-10-10-10-10-10-10-10-10-10-10|

"Take this..."
G|-----------------------------------------------------|
D|-----------------------------------------------------|
A|------------8-8-8-8-8-8------------------------------|
D|8-8-8-8-8-8-------------0-0-0-0-0-0-10-10-10-10-10-10|

"I'll take..."
G|-----------------------------------------------------------|
D|-----------------------------------------------------------|
A|------------8-8-8-8-8-8------------------------------------|
D|8-8-8-8-8-8-------------10-10-10-10-10-10-10-10-10-10-10-10|

Bridge
G|-----------------------|
D|-----------------------| x4
A|------8-8-8-------7-7-7|
D|0-0-0-------3-3-3------|

Outro
"and when it all goes to hell!"
G|------------------------------------------|
D|------------------------------------------| x3
A|------------------------------------------|
D|0-0-0--0-0-8-8-8-8-3-3-3-3-3-3-2-2-2-2-2-2|

"And when its all goes!"
G|------------------------------------------|
D|------------------------------------------|
A|------------------------------------------|
D|0-0-0--0-0-8-8-8-8-3-3-3-3-3-3-2-2-2-2-2-2|

G|---------------|
D|---------------|
A|---------------|
D|0-0-0-0---8-8-0|

Lyrics

I'm holding out and I'm holding on 
to every letter and every song.
I pulled myself out of the day we ever had to meet.
Are you through with me? 

So..

And when it all goes to hell, 
will you be able to tell 
me you're sorry with a straight face.
[x2]

Let's Go!

I'm all ears and I'm all scars 
to hear you tell me "Boy's like you, you try too hard 
to look not quite as desperate". I'm hanging on. 
But I still know the way to make your makeup run.

So..

And when it all goes to hell, 
will you be able to tell 
me you're sorry with a straight face.
[x3]

And when it all goes to hell, (Take this to your grave)
will you be able to tell 
me you're sorry with a straight face. (I'll take it to mine)

And when it all goes to hell [x3]
And when it all goes.
Suggest correction
Creating personal tab
Creating personal tab
You can edit any tab online and save it as your Personal.

You can edit, replace or remove any tab part or add personal notes – all changes will be seen only by you.

Personal tabs can be accessed anytime from any device, even offline.
Learn more »
comments
print report bad tab
4 comments total. Showing first comments.
0 reply
bombruno 10 May 10, 2008 12:06 PM

the bass solo is G---------------------------------------
D---------------------------------------
A---------------------------------------
D-0000-88888--3333333--222222-----------
no offense to the kid who made this but the way i put it now it sounds closer to the real thing

0 reply
Jay Sanderson 272 Aug 28, 2009 02:16 PM

G|-----------------------------------------------------|
D|-----------------------------------------------------|
A|------------8-8-8-8-8-8------------------------------|
D|8-8-8-8-8-8-------------0-0-0-0-0-0-10-10-10-10-10-10|

Should Be:

G|-----------------------------------------------------|
D|-----------------------------------------------------|
A|------------8-8-8-8-8-8------------------------------|
D|8-8-8-8-8-8-------------0-0-0-0-0-0-10-10-10-10-12-10|

Just one note but you can hear the difference ;)

guest
You may want to rate the tab now too:
select rating
Wanna post a correction for this tab? Suggest correction