Oops, an error
Loading. Please wait.

The Pros And Cons Of Breathing bass

version 1
version 1

Whole song

Interactive

1,761 views 3 this week
2 commentsread comments
1 2 3 4 5
1 last vote to show rating
add to favorites
×
Save as Personal and add changes to this tab that will be seen only by you. Learn more ›
×
You can save this tab as Personal to edit and correct it or add notes. All changes will be seen only by you. Learn more »
launch autoscroll
font size
0
reset
guitar tuner
edit
Autoscroll
slow
fast
+/-
esc
set tempo
stop
Author
Difficulty
this is a real great song by fall out boy with a really good mix of riffs used. the song 
off of their 2003 take this to your grave album.


Intro:


---------------------------------------|
---------------------------------------|   x2
---------2-----------------------------|
---4--0-----2--0--2--------------------|


Verse:


---------------------------------------|
---------------------------------------|   x3
---------------------------------------|
---44444--00000--22222--0000--2--------|


---------------------------------------|
---------------------------------------|   x1
---------------------------------------|
---444444--666666--000000000000--------|


Chorus:


---------------------------------------|
---------------------------------------|   x1
---------------------------------------|
---444--000000--22222--000000--2-------|


---------------------------------------|
---------------------------------------|   x1
---------------------------------------|
---44444--66666--00000000000-----------|


---------------------------------------|
---------------------------------------|   x2
----------------22222--444--666--------|
---00000000000-------------------------|


---------------------------------------|
---------------------------------------|   x2
---------------------2-2-222--444--666-|
---0-0-000-0-0--0-0--------------------|


(play everything over again)


Bridge:


---------------------------------------|
---------------------------------------|   x4
---------------------------------------|
---4--44--4444--6666--7777--0000-------|


Outro:


---------------------------------------|
---------------------------------------|   x2
---------------------------------------|
---44444--00000--22222--0000--2--------|


---------------------------------------|
---------------------------------------|   x2
---------------------------------------|
---44444--66666--00000--22222----------|
Suggest correction
Creating personal tab
Creating personal tab
You can edit any tab online and save it as your Personal.

You can edit, replace or remove any tab part or add personal notes – all changes will be seen only by you.

Personal tabs can be accessed anytime from any device, even offline.
Learn more »
Give kudos to tab author, rate the tab!
1 2 3 4 5
comments
print report bad tab
2 comments total.
0 reply
bames2323 31 Jun 29, 2007 10:00 AM

whats the tuning on the thing?

0 reply
bassbomb1193 320 Nov 03, 2007 05:32 PM

sucks

guest
You may want to rate the tab now too:
select rating
Wanna post a correction for this tab? Suggest correction