Oops, an error
Loading. Please wait.
We have an official This Aint A Scene Its An Arms Race tab made by UG professional guitarists. Check out the tab »
×
7,283 views 3 this week
5 commentsread comments
1 2 3 4 5
1 last vote to show rating
add to favorites
×
Save as Personal and add changes to this tab that will be seen only by you. Learn more ›
×
You can save this tab as Personal to edit and correct it or add notes. All changes will be seen only by you. Learn more »
launch autoscroll
font size
0
reset
guitar tuner
backing track
0:00
0:00
edit
Autoscroll
slow
fast
+/-
esc
set tempo
stop
                    This Ain't a Scene, It's an Arms Race                       


                                                                    Fall Out Boy
Track 5



     H        Q    Q       H        H           H        H         
G||---------------------|--------------------|--------------------|
D||---------------------|--------------------|--------------------|
A||---------------------|--------------------|--------------------|
E||--5------------------|--5-----------------|--5-----------------|


  H        H           H        H           H        H         
--------------------|--------------------|--------------------|
--------------------|--------------------|--------------------|
--5--------7--------|--------------------|--------------------|
--------------------|--0-----------------|--0-----------------|


  H        H           H        H           H        Q    Q     
--------------------|--------------------|---------------------|
--------------------|--------------------|---------------------|
--5-----------------|--3-----------------|---------------------|
--------------------|--------------------|--5------------------|


  H        H           H        H           H        H         
--------------------|--------------------|--------------------|
--------------------|--------------------|--------------------|
--------------------|--------------------|--5--------7--------|
--5-----------------|--5-----------------|--------------------|


  H        H           H        H           H        H         
--------------------|--------------------|--------------------|
--------------------|--------------------|--------------------|
--------------------|--------------------|--5-----------------|
--0-----------------|--0-----------------|--------------------|


  H        H           H        Q    Q       H        H         
--------------------|---------------------|--------------------|
--------------------|---------------------|--------------------|
--3-----------------|---------------------|--------------------|
--------------------|--5------------------|--5-----------------|


  H        H           H        H           H        H         
--------------------|--------------------|--------------------|
--------------------|--------------------|--------------------|
--------------------|--5--------7--------|--------------------|
--5-----------------|--------------------|--0-----------------|


  H        H           H        H           H        H         
--------------------|--------------------|--------------------|
--------------------|--------------------|--------------------|
--------------------|--5-----------------|--3-----------------|
--0-----------------|--------------------|--------------------|


  H        Q    Q       H        H           H        H         
---------------------|--------------------|--------------------|
---------------------|--------------------|--------------------|
---------------------|--------------------|--------------------|
--5------------------|--5-----------------|--5-----------------|


  H        H           H        H           H        H         
--------------------|--------------------|--------------------|
--------------------|--------------------|--------------------|
--5--------7--------|--------------------|--------------------|
--------------------|--0-----------------|--0-----------------|


  H        H           H        E  E  E  E     E  E  E  E  E  E  E  E   
--------------------|-----------------------|--------------------------|
--------------------|-----------------------|--------------------------|
--------------------|-----------------------|--------------------------|
--0--------L--------|--L--------x--x--x--x--|--5--5--5--5--5--5--5--5--|


  E  E  E  E  E  E  E  E     E  E  E  E  E  E  E  E   
--------------------------|--------------------------|
--------------------------|--------------------------|
--------------------------|--------------------------|
--5--5--5--5--5--5--5--5--|--1--1--1--1--1--1--1--1--|


  E  E  E  E  E  E  E  E     E  E  E  E  E  E  E  E   
--------------------------|--------------------------|
--------------------------|--------------------------|
--------------------------|--3--3--3--3--3--3--3--3--|
--1--1--1--1--1--1--1--1--|--------------------------|


  E  E  E  E  E  E  E  E     E  E  E  E  E  E  E  E   
--------------------------|--------------------------|
--------------------------|--------------------------|
--3--3--3--3--3--3--3--3--|--------------------------|
--------------------------|--4--4--4--4--4--4--4--4--|


  E  E  E  E  E  E  E  E     E  E  E  E  E  E  E  E   
--------------------------|--------------------------|
--------------------------|--------------------------|
--------------------------|--------------------------|
--4--4--4--4--4--4--4--4--|--5--5--5--5--5--5--5--5--|


  E  E  E  E  E  E  E  E     E  E  E  E  E  E  E  E   
--------------------------|--------------------------|
--------------------------|--------------------------|
--------------------------|--------------------------|
--5--5--5--5--5--5--5--5--|--1--1--1--1--1--1--1--1--|


  E  E  E  E  E  E  E  E     E  E  E  E  E  E  E  E   
--------------------------|--------------------------|
--------------------------|--------------------------|
--------------------------|--3--3--3--3--3--3--3--3--|
--1--1--1--1--1--1--1--1--|--------------------------|


  E  E  E  E  E  E  E  E     E  E  E  E  E  E  E  E   
--------------------------|--------------------------|
--------------------------|--------------------------|
--3--3--3--3--3--3--3--3--|--------------------------|
--------------------------|--4--4--4--4--4--4--4--4--|


  E  E  E  E  E  E  E  E                     H        Q    Q     
--------------------------|-------|-------|---------------------|
--------------------------|-------|-------|---------------------|
--------------------------|-------|-------|---------------------|
--4--4--4--4--4--4--4--4--|-------|-------|--5------------------|


  H        H           H        H           H        H         
--------------------|--------------------|--------------------|
--------------------|--------------------|--------------------|
--------------------|--------------------|--5--------7--------|
--5-----------------|--5-----------------|--------------------|


  H        H           H        H           H        H         
--------------------|--------------------|--------------------|
--------------------|--------------------|--------------------|
--------------------|--------------------|--5-----------------|
--0-----------------|--0-----------------|--------------------|


  H        H           H        Q    Q       H        H         
--------------------|---------------------|--------------------|
--------------------|---------------------|--------------------|
--3-----------------|---------------------|--------------------|
--------------------|--5------------------|--5-----------------|


  H        H           H        H           H        H         
--------------------|--------------------|--------------------|
--------------------|--------------------|--------------------|
--------------------|--5--------7--------|--------------------|
--5-----------------|--------------------|--0-----------------|


  H        H           H        H           H        H         
--------------------|--------------------|--------------------|
--------------------|--------------------|--------------------|
--------------------|--5-----------------|--3-----------------|
--0-----------------|--------------------|--------------------|


  H        Q    Q       H        H           H        H         
---------------------|--------------------|--------------------|
---------------------|--------------------|--------------------|
---------------------|--------------------|--------------------|
--5------------------|--5-----------------|--5-----------------|


  H        H           H        H           H        H         
--------------------|--------------------|--------------------|
--------------------|--------------------|--------------------|
--5--------7--------|--------------------|--------------------|
--------------------|--0-----------------|--0-----------------|


  H        H           H        H           H        Q    Q     
--------------------|--------------------|---------------------|
--------------------|--------------------|---------------------|
--5-----------------|--3-----------------|---------------------|
--------------------|--------------------|--5------------------|


  H        H           H        H           H        H         
--------------------|--------------------|--------------------|
--------------------|--------------------|--------------------|
--------------------|--------------------|--5--------7--------|
--5-----------------|--5-----------------|--------------------|


  H        H           H        H           Q    Q    Q    Q     
--------------------|--------------------|----------------------|
--------------------|--------------------|----------------------|
--------------------|--------------------|----------------------|
--0-----------------|--0-----------------|--5----5--------------|


  Q    Q    E  E  E  E     E  E  E  E  E  E  E  E     E  E  E  E  E  E  E  E   
------------------------|--------------------------|--------------------------|
------------------------|--------------------------|--------------------------|
------------------------|--------------------------|--------------------------|
--0----0----x--x--x--x--|--5--5--5--5--5--5--5--5--|--5--5--5--5--5--5--5--5--|


  E  E  E  E  E  E  E  E     E  E  E  E  E  E  E  E   
--------------------------|--------------------------|
--------------------------|--------------------------|
--------------------------|--------------------------|
--1--1--1--1--1--1--1--1--|--1--1--1--1--1--1--1--1--|


  E  E  E  E  E  E  E  E     E  E  E  E  E  E  E  E   
--------------------------|--------------------------|
--------------------------|--------------------------|
--3--3--3--3--3--3--3--3--|--3--3--3--3--3--3--3--3--|
--------------------------|--------------------------|


  E  E  E  E  E  E  E  E     E  E  E  E  E  E  E  E   
--------------------------|--------------------------|
--------------------------|--------------------------|
--------------------------|--------------------------|
--4--4--4--4--4--4--4--4--|--4--4--4--4--4--4--4--4--|


  E  E  E  E  E  E  E  E     E  E  E  E  E  E  E  E   
--------------------------|--------------------------|
--------------------------|--------------------------|
--------------------------|--------------------------|
--5--5--5--5--5--5--5--5--|--5--5--5--5--5--5--5--5--|


  E  E  E  E  E  E  E  E     E  E  E  E  E  E  E  E   
--------------------------|--------------------------|
--------------------------|--------------------------|
--------------------------|--------------------------|
--1--1--1--1--1--1--1--1--|--1--1--1--1--1--1--1--1--|


  E  E  E  E  E  E  E  E     E  E  E  E  E  E  E  E   
--------------------------|--------------------------|
--------------------------|--------------------------|
--3--3--3--3--3--3--3--3--|--3--3--3--3--3--3--3--3--|
--------------------------|--------------------------|


  E  E  E  E  E  E  E  E     E  E  E  E  E  E  E  E   
--------------------------|--------------------------|
--------------------------|--------------------------|
--------------------------|--------------------------|
--4--4--4--4--4--4--4--4--|--4--4--4--4--4--4--4--4--|


  E  E  E  E  E  E  E  E     E  E  E  E  E  E  E  E   
--------------------------|--------------------------|
--------------------------|--------------------------|
--5--5--5--5--5--5--5--5--|--5--5--5--5--5--5--5--5--|
--------------------------|--------------------------|


  E  E  E  E  E  E  E  E     E  E  E  E  E  E  E  E   
--------------------------|--------------------------|
--------------------------|--------------------------|
--------------------------|--------------------------|
--5--5--5--5--5--5--5--5--|--5--5--5--5--5--5--5--5--|


  E  E  E  E  E  E  E  E     E  E  E  E  E  E  E  E     E  E  Q    E  E  Q     
--------------------------|--------------------------|------------------------|
--------------------------|--------------------------|------------------------|
--7--7--7--7--7--7--7--7--|--7--7--7--7--7--7--7--7--|--0--0--0----2--2--2----|
--------------------------|--------------------------|------------------------|


  E  E  Q    E  E  Q       E  E  E  E  E  E  E  E     E  E  E  E  E  E  E  E   
------------------------|--------------------------|--------------------------|
------------------------|--------------------------|--------------------------|
--3--3--3----5--5--5----|--5--5--5--5--5--5--5--5--|--5--5--5--5--5--5--5--5--|
------------------------|--------------------------|--------------------------|


  E  E  E  E  E  E  E  E     E  E  E  E  E  E  E  E     W                 
--------------------------|--------------------------|-------------------|
--------------------------|--------------------------|-------------------|
--------------------------|--------------------------|--7----------------|
--5--5--5--5--5--5--5--5--|--5--5--5--5--5--5--5--5--|-------------------|


  W                   W                   W                   W                 
-------------------|-------------------|-------------------|-------------------|
-------------------|-------------------|-------------------|-------------------|
--L----------------|--7----------------|--L----------------|-------------------|
-------------------|-------------------|-------------------|--5----------------|


  W                   W                   W                   W                 
-------------------|-------------------|-------------------|-------------------|
-------------------|-------------------|-------------------|-------------------|
-------------------|-------------------|-------------------|-------------------|
--L----------------|--L----------------|--L----------------|--4----------------|


  W                   W                   W                 
-------------------|-------------------|-------------------|
-------------------|-------------------|-------------------|
-------------------|-------------------|-------------------|
--L----------------|--0----------------|--L----------------|


  Q    Q    Q    Q       Q    Q    Q    Q       Q    Q    Q    Q     
----------------------|----------------------|----------------------|
----------------------|----------------------|----------------------|
----------------------|----------------------|----------------------|
--5----5----5----5----|--5----5----5----5----|--5----5----5----5----|


  Q    Q    Q    Q       Q    Q    Q    Q       Q    Q    Q    Q     
----------------------|----------------------|----------------------|
----------------------|----------------------|----------------------|
----------------------|----------------------|----------------------|
--5----5----5----5----|--4----4----4----4----|--4----4----4----4----|


  Q    Q    Q    Q       Q    Q    Q    Q       Q    Q    Q    Q     
----------------------|----------------------|----------------------|
----------------------|----------------------|----------------------|
----------------------|----------------------|----------------------|
--4----4----4----4----|--4----4----4----4----|--5----5----5----5----|


  Q    Q    Q    Q       Q    Q    Q    Q       Q    Q    Q    Q     
----------------------|----------------------|----------------------|
----------------------|----------------------|----------------------|
----------------------|----------------------|----------------------|
--5----5----5----5----|--5----5----5----5----|--5----5----5----5----|


  Q    Q    Q    Q       Q    Q    Q    Q       Q    Q    Q    Q     
----------------------|----------------------|----------------------|
----------------------|----------------------|----------------------|
----------------------|----------------------|----------------------|
--4----4----4----4----|--4----4----4----4----|--4----4----4----4----|


  Q    Q    Q    Q                                                             
----------------------|-------|-------|-------|-------|-------|-------|-------|
----------------------|-------|-------|-------|-------|-------|-------|-------|
----------------------|-------|-------|-------|-------|-------|-------|-------|
--4----4----4----4----|-------|-------|-------|-------|-------|-------|-------|


          E  E  E  E  E  E  E  E     E  E  E  E  E  E  E  E   
-------|--------------------------|--------------------------|
-------|--------------------------|--------------------------|
-------|--------------------------|--------------------------|
-------|--5--5--5--5--5--5--5--5--|--5--5--5--5--5--5--5--5--|


  E  E  E  E  E  E  E  E     E  E  E  E  E  E  E  E   
--------------------------|--------------------------|
--------------------------|--------------------------|
--------------------------|--------------------------|
--1--1--1--1--1--1--1--1--|--1--1--1--1--1--1--1--1--|


  E  E  E  E  E  E  E  E     E  E  E  E  E  E  E  E   
--------------------------|--------------------------|
--------------------------|--------------------------|
--3--3--3--3--3--3--3--3--|--3--3--3--3--3--3--3--3--|
--------------------------|--------------------------|


  E  E  E  E  E  E  E  E     E  E  E  E  E  E  E  E   
--------------------------|--------------------------|
--------------------------|--------------------------|
--------------------------|--------------------------|
--4--4--4--4--4--4--4--4--|--4--4--4--4--4--4--4--4--|


  E  E  E  E  E  E  E  E     E  E  E  E  E  E  E  E   
--------------------------|--------------------------|
--------------------------|--------------------------|
--------------------------|--------------------------|
--5--5--5--5--5--5--5--5--|--5--5--5--5--5--5--5--5--|


  E  E  E  E  E  E  E  E     E  E  E  E  E  E  E  E   
--------------------------|--------------------------|
--------------------------|--------------------------|
--------------------------|--------------------------|
--1--1--1--1--1--1--1--1--|--1--1--1--1--1--1--1--1--|


  E  E  E  E  E  E  E  E     E  E  E  E  E  E  E  E   
--------------------------|--------------------------|
--------------------------|--------------------------|
--3--3--3--3--3--3--3--3--|--3--3--3--3--3--3--3--3--|
--------------------------|--------------------------|


  E  E  E  E  E  E  E  E     E  E  E  E  E  E  E  E   
--------------------------|--------------------------|
--------------------------|--------------------------|
--------------------------|--------------------------|
--4--4--4--4--4--4--4--4--|--4--4--4--4--4--4--4--4--|


  E  E  E  E  E  E  E  E     E  E  E  E  E  E  E  E     W                   
--------------------------|--------------------------|--------------------||
--------------------------|--------------------------|--------------------||
--------------------------|--5--5--5--5--5--5--5--5--|--------------------||
--0--0--0--0--0--0--0--0--|--------------------------|--5\----------------||




Duration Legend
---------------
W - whole
H - half
Q - quarter
E - 8th
S - 16th
T - 32nd
X - 64th
. - note dotted
|-n-|  - n-tuplets


Tablature Legend
----------------
L - tied note
x - dead note
g - grace note
(n) - ghost note
> - accentuded note
NH - natural harmonic
AH - artificial harmonic
TH - tapped harmonic
SH - semi harmonic
PH - pitch harmonic
h - hammer on
p - pull off
b - bend
br - bendRelease
pb - preBend
pbr - preBendRelease
brb - bendReleaseBend
\n/ - tremolo bar dip
\n - tremolo bar dive
-/n - tremolo bar Release up
/n\ - tremolo bar inverted dip
/n - tremolo bar return
-\n - tremolo bar Release down
S - shift slide
s - legato slide
/ -  slide into from below or out of upwards
\ -  slide into from above or out of downwards
~ - vibrato
W - wide vibrato
tr - trill
TP - tremolo picking
T - tapping
S - slap
P - pop
< - fade in
^ - brush up
v - brush down

            
            
Suggest correction
Creating personal tab
Creating personal tab
You can edit any tab online and save it as your Personal.

You can edit, replace or remove any tab part or add personal notes – all changes will be seen only by you.

Personal tabs can be accessed anytime from any device, even offline.
Learn more »
Give kudos to tab author, rate the tab!
1 2 3 4 5
comments
print report bad tab
5 comments total. Showing first comments.
0 reply
pnkr0cker 2,033 Dec 22, 2006 10:10 AM

dude this bass looks exactly like the bass on my guitar pro tab.... i don't care but is that where you got it?

and i messed up on the verse this part

G|------------|
D|------------|
A|--5---7-----|
E|------------|

it really is this

G|-----------|
D|-----------|
A|--3---5----|
E|-----------|

0 reply
JamesForks 10 Dec 23, 2006 06:04 AM

Most of this is right but I don't think it all is...it doesn't fit right. There sounds like there's more strumming and stuff through, like, half the verse and after the second chorus is doesn't sound right and it's hard to understand. Maybe you can make it make more sense for me.

0 reply
LOVECANTSAVEYOU 71 Dec 24, 2006 12:01 PM

yeah and its too long and make it like the regular tabs and like i think it is wrong bc he plays more than that in the song its not like that whole thing of whole notes and half and stuff theres more strumming he's right^

guest
Wanna post a correction for this tab? Suggest correction