Oops, an error
Loading. Please wait.
We have an official This Aint A Scene Its An Arms Race tab made by UG professional guitarists. Check out the tab »
×
11,706 views 6 this week
11 commentsread comments
1 2 3 4 5
x 10
add to favorites
×
Save as Personal and add changes to this tab that will be seen only by you. Learn more ›
×
You can save this tab as Personal to edit and correct it or add notes. All changes will be seen only by you. Learn more »
launch autoscroll
font size
0
reset
how to read this tab
guitar tuner
backing track
0:00
0:00
edit
Autoscroll
slow
fast
+/-
esc
set tempo
stop
Key:
p = pull-off
h = hammer-on
b = bend
~ = let ring
/ or \ = slide up or down
x = mute

Once you get the feel for the verse, it's pretty easy

Verse x3
e|------------------------------------|--------------------------------|
B|------------------------------------|--------------------------------|
G|------------------------------------|--------------------------------|
D|-7-9-10-9-79-10--9--7-9-10-9-79-10~-|-6-7-9-7-67-9--7--6-7-9-7-67-9~-|
A|-7-9-10-9-79-10--9--7-9-10-9-79-10~-|-6-7-9-7-67-9--7--6-7-9-7-67-9~-|
D|-7-9-10-9-79-10--9--7-9-10-9-79-10~-|-6-7-9-7-67-9--7--6-7-9-7-67-9~-|

e|------------------------------------|--------------------------------|
B|------------------------------------|--------------------------------|
G|------------------------------------|--------------------------------|
D|-7-9-10-9-79-10--9--7-9-10-9-79-10~-|-6-7-9-7-67-9-6~----------------|
A|-7-9-10-9-79-10--9--7-9-10-9-79-10~-|-6-7-9-7-67-9-6~----------------|
D|-7-9-10-9-79-10--9--7-9-10-9-79-10~-|-6-7-9-7-67-9-6~----------------|

Chorus
e|-------|----------------------------------------------------|-----------------|
B|-------|----------------------------------------------------|-----------------|
G|-------|----------------------------------------------------|-----------------|
D|-xxxxx-|-77777777-33333333-10-10-10-10-10-10-10-10-66666666-|-7-9-10-9-79-10~-|
A|-xxxxx-|-77777777-33333333-10-10-10-10-10-10-10-10-66666666-|-7-9-10-9-79-10~-|
D|-xxxxx-|-77777777-33333333-10-10-10-10-10-10-10-10-66666666-|-7-9-10-9-79-10~-|
          \_______________________x2_________________________/

Verse x3
e|------------------------------------|--------------------------------|
B|------------------------------------|--------------------------------|
G|------------------------------------|--------------------------------|
D|-7-9-10-9-79-10--9--7-9-10-9-79-10~-|-6-7-9-7-67-9--7--6-7-9-7-67-9~-|
A|-7-9-10-9-79-10--9--7-9-10-9-79-10~-|-6-7-9-7-67-9--7--6-7-9-7-67-9~-|
D|-7-9-10-9-79-10--9--7-9-10-9-79-10~-|-6-7-9-7-67-9--7--6-7-9-7-67-9~-|

e|------------------------------------|--------------------------------|
B|------------------------------------|--------------------------------|
G|------------------------------------|--------------------------------|
D|-7-9-10-9-79-10--9--7-9-10-9-79-10~-|-6-7-9-7-67-9--77~--66~---------|
A|-7-9-10-9-79-10--9--7-9-10-9-79-10~-|-6-7-9-7-67-9--77~--66~---------|
D|-7-9-10-9-79-10--9--7-9-10-9-79-10~-|-6-7-9-7-67-9--77~--66~---------|

Chorus
e|-------|----------------------------------------------------|
B|-------|----------------------------------------------------|
G|-------|----------------------------------------------------|
D|-xxxxx-|-77777777-33333333-10-10-10-10-10-10-10-10-66666666-|
A|-xxxxx-|-77777777-33333333-10-10-10-10-10-10-10-10-66666666-|
D|-xxxxx-|-77777777-33333333-10-10-10-10-10-10-10-10-66666666-|
          \_______________________x2_________________________/

Bridge pt. 1 guitar 1
e|------------------------------------------------------------------------------------------|
B|------------------------------------------------------------------------------------------|
G|-99999999-----------------99999999----------------10-10-10-10-10-10-10-10-----------------|
D|-99999999-7-9-10-9-79-10--99999999-7-9-10-9-79-10-10-10-10-10-10-10-10-10-10-9-10-9-79-10-|
A|-77777777-7-9-10-9-79-10--77777777-7-9-10-9-79-10-8--8--8--8--8--8--8--8--10-9-10-9-79-10-|
D|----------7-9-10-9-79-10-----------7-9-10-9-79-10-------------------------10-9-10-9-79-10-|

Bridge pt. 1 guitar 2
e|------------------------------------------------------------------------------------------|
B|------------------------------------------------------------------------------------------|
G|-99999999-----------------99999999----------------17~---16~---14~---16~-------------------|
D|-99999999-7-9-10-9-79-10--99999999-7-9-10-9-79-10-x-----x-----x-----x-----10-9-10-9-79-10-|
A|-77777777-7-9-10-9-79-10--77777777-7-9-10-9-79-10-15~---14~---12~---14~---10-9-10-9-79-10-|
D|----------7-9-10-9-79-10-----------7-9-10-9-79-10-------------------------10-9-10-9-79-10-|

Bridge pt. 2 guitar 1
e|---------------------------------------------------------------------------|
B|---------------------------------------------------------------------------|
G|-9999999999999999-9999999999999999-----------------------------------------|
D|-9999999999999999-9999999999999999-----------------------------------------|
A|-7777777777777777-7777777777777777-----------------------------------------|
D|---------------------------------------------------------------------------|

Bridge pt. 2 guitar 2
e|---------------------------------------------------------------------------|
B|---------------------------------------------------------------------------|
G|-99999999-13-13-13-13-13-13-13-13-99999999-13-13-13-13-13-13-13-13-14~-----|
D|-xxxxxxxx-x--x--x--x--x--x--x--x--xxxxxxxx-x--x--x--x--x--x--x--x--x-------|
A|-77777777-11-11-11-11-11-11-11-11-77777777-11-11-11-11-11-11-11-11-12~-----|
D|---------------------------------------------------------------------------|

Breakdown guitar 1 x3
e|------------------------------------|--------------------------------|
B|------------------------------------|--------------------------------|
G|------------------------------------|--------------------------------|
D|-7-9-10-9-79-10--9--7-9-10-9-79-10~-|-6-7-9-7-67-9--7--6-7-9-7-67-9~-|
A|-7-9-10-9-79-10--9--7-9-10-9-79-10~-|-6-7-9-7-67-9--7--6-7-9-7-67-9~-|
D|-7-9-10-9-79-10--9--7-9-10-9-79-10~-|-6-7-9-7-67-9--7--6-7-9-7-67-9~-|

Breakdown guitar 2 (only the first time)
e|---------------------------------------------------------------------|
B|---------------------------------------------------------------------|
G|----------------------------------14\13~---------------9~------------|
D|----------------------------------x--x-----------------x-------------|
A|----------------------------------12\11~---------------7~------------|
D|---------------------------------------------------------------------|

Chorus
e|--------------------------------------------------------|
B|--------------------------------------------------------|
G|--------------------------------------------------------|
D|-\\\-77777777-33333333-10-10-10-10-10-10-10-10-66666666-|
A|-\\\-77777777-33333333-10-10-10-10-10-10-10-10-66666666-|
D|-\\\-77777777-33333333-10-10-10-10-10-10-10-10-66666666-|
       \_______________________x2________________________/
Outro
e|----------------------|
B|----------------------|
G|----------------------|
D|-2222222222222222--7--|
A|-2222222222222222--7--|
D|-2222222222222222--7--|

            
            
Suggest correction
Creating personal tab
Creating personal tab
You can edit any tab online and save it as your Personal.

You can edit, replace or remove any tab part or add personal notes – all changes will be seen only by you.

Personal tabs can be accessed anytime from any device, even offline.
Learn more »
comments
print report bad tab
11 comments total. Showing first comments.
-1 reply
pnkr0cker 2,010 Dec 18, 2006 08:48 AM

sorry dude. it sucks bad. look at version three.

0 reply
pnkr0cker 2,010 Dec 18, 2006 02:13 PM

if you watch them live they do power chords. have u played this tab with the song? it sounds wrong

0 reply
pnkr0cker 2,010 Dec 18, 2006 02:15 PM

listen to this. go to the link.

http://www.youtube.com/watch?v=Os4XrSJMNEI

guest
You may want to rate the tab now too:
select rating
Wanna post a correction for this tab? Suggest correction