Oops, an error
Loading. Please wait.
We have an official Thnks Fr Th Mmrs tab made by UG professional guitarists. Check out the tab »
×
11,214 views 6 this week
14 commentsread comments
1 2 3 4 5
x 11
add to favorites
×
Save as Personal and add changes to this tab that will be seen only by you. Learn more ›
×
You can save this tab as Personal to edit and correct it or add notes. All changes will be seen only by you. Learn more »
launch autoscroll
font size
0
reset
guitar tuner
backing track
0:00
0:00
edit
Autoscroll
slow
fast
+/-
esc
set tempo
stop
Author
Song: Thnks Fr Th Mmrs
Artist: Fall Out Boy
tabbed by: Valerie L.
e-mail: iloled@yahoo.com
Tuning: E Flat

This song can be played in standard and drop D, but I decided that it's much easier 
this song in E FLAT.  E flat is like tuning down to Drop D, instead you use the sixth fret 
the A string to tune down which is E Flat.

Verse: "And I want these words.."
G|--------------------------------------------------------------------|
D|--------------------------------------------------------------------|
A|-------------------------------------------44444444-----------------|
E|7777777777777777-66666666-22222222-00000000---------666666666-6~----|

Chorus:
G|-------------------------------------------------------------------------|
D|--------------------------------------------------------------------66---|
A|----------------------------------------------------------------66----66-|
E|77777777-33333333-00000000-3333-5555-77777777-33333333-55-55-55----------|x2

pre-Verse
G|------------------|
D|------------------|
A|------------------|
E|-7------7---------|

Verse: "Been looking forward..."
G|------------------------------------------------------------|
D|-88888888-77777777------------------------------------------|
A|-------------------88888888-6666666-44444444-22222222222222-|
E|------------------------------------------------------------|

G|------------------------------------------------------------|
D|-88888888-77777777------------------------------------------|
A|-------------------88888888-6666666-44444444-00000000000000-|
E|------------------------------------------------------------|

Chorus x2

Bridge: "they only say I think..."
G|------------------------------------|
D|-88888888-77777777------------------|
A|-------------------6666666-88888888-|
E|------------------------------------| x2

Breakdown:
G|---------------------|-------------|
D|---------------------|-------66----|
A|---------------------|----66----66-|
E|-7----7---55555555555|-55----------|

Chorus x2

end with:
G|-------|
D|-------|
A|-------|
E|-7~----|
Suggest correction
Creating personal tab
Creating personal tab
You can edit any tab online and save it as your Personal.

You can edit, replace or remove any tab part or add personal notes – all changes will be seen only by you.

Personal tabs can be accessed anytime from any device, even offline.
Learn more »
comments
print report bad tab
14 comments total. Showing first comments.
0 reply
danielitri-182 10 Feb 15, 2007 11:58 AM

tab looks great, chorus is a little awkward

4 stars

0 reply
guitarlad12 78 Apr 07, 2007 07:31 PM

Some wrong notes.

0 reply
punk_isntemo12 40 Apr 11, 2007 10:18 PM

sounds ok to me

guest
You may want to rate the tab now too:
select rating
Wanna post a correction for this tab? Suggest correction