Oops, an error
Loading. Please wait.

Thnks Fr Th Mmrs Tab

version 3
76,117 views 123 this week
33 commentsread comments
1 2 3 4 5
accurate
x 21
add to favorites
launch autoscroll
font size
0
reset
how to read this tab
guitar tuner
Autoscroll
slow
fast
+/-
esc
set tempo
stop
Help us to improve Ultimate-Guitar.com Take our survey!
×
Author
Difficulty
Tuning
advanced
D A D G B E
Song:      Thnks Fr Th Mmrs (Thanks For The Memories)
Artist:    Fall Out Boy
Album:     Infinity On High
Tabbed by: Paul Anthonie Antoc
E-mail:    paul_antoc@yahoo.com
Tuning:    Drop D

[Intro] (Orchestra translate to guitars)

Gtr 1:
e|--------------------------------------------------------------|
B|--------------------------------------------------------------|
G|--------------------------------------------------------------|
D|-8------------------------------------------------------------|
A|-8-8-8-8-8-8-8-8-8-8-8-8-8-8-8-8-8-8-8-8-8-8-8-8-8-8-8-8-8-8--|
D|-8-8-8-8-8-8-8-8-8-8-8-8-8-8-8-8-8-8-8-8-8-8-8-8-8-8-8-8-8-8--|
     . . . . . . . . . . . . . . . . . . . . . . . . . . . . .

Gtr 2:
e|----------------------------------|
B|----------------------------------|
G|----------------------------------|
D|-8----------9--------10~---11-----|
A|-8----------9--------10~---11-----|
D|-8----------9--------10~---11-----|


[Verse] "Im gonna make you bend and break.."

Gtr 1:
e|------------------------------------------------------------------|
B|------------------------------------------------------------------|
G|------------------------------------------------------------------|
D|-8----------------------------------------------------------------|
A|-8--------------------------------6666666-4444444-----------------|
D|-888888888888888-7777777-33333333-----------------777777777777777-|
    .............. ....... ........ ....... ....... ...............

(Continued)
e|------------------------------------------------------------------|
B|------------------------------------------------------------------|
G|------------------------------------------------------------------|
D|-8--------------------------------8888888-6666666-----------------|
A|-888888888888888-8888888-33333333-6666666-4444444-888888888888888-|
D|-888888888888888-7777777-33333333-----------------777777777777777-|
    .............. ....... ........ ....... ....... ...............

Gtr 2:
e|------------------------------------------|
B|------------------------------------------|
G|-----------11-13-14-----------11-13-14----|
D|-----11-13--------------11-13-------------|
A|--12-----------------12-------------------|
D|------------------------------------------|

(Enters at the 2nd time of verse)
e|---------------------------------|
B|---------------------------------|
G|-10-10-11-11-10-10-8-8-----------| 8x
D|---------------------------------|
A|---------------------------------|
D|---------------------------------|
   .  .  .  .  .  .  . .


[Chorus] "One night and one more time.."

 Gtr 1 & 2:
e|------------------------------------------------|
B|------------------------------------------------|
G|-1010101010101010-66666666-33333333-6666--------|
D|--8-8-8-8-8-8-8-8-44444444-11111111-4444/7777---|
A|--8-8-8-8-8-8-8-8-44444444-11111111-4444/8888---|
D|--8-8-8-8-8-8-8-8-44444444-11111111-4444/7777---|

(Continued)                                                    2x
e|---------------------------------------------|
B|---------------------------------------------|
G|-1010101010101010-66666666-8888888888888888--|
D|--8-8-8-8-8-8-8-8-44444444-6666666666666666--|
A|--8-8-8-8-8-8-8-8-44444444-6666666666666666--|
D|--8-8-8-8-8-8-8-8-44444444-6666666666666666--|


[Before the Verse]

e|---------------------------------------------------------------|
B|---------------------------------------------------------------|
G|---------------------------------------------------------------|
D|-8--------------------------------8----------------------------|
A|-8-8-8-8-8-8-8-8-8-8-8-8-8-8-8-8-8--8-8-8-8-8-8-8-8-8-8-8-8-8--|
D|-8-8-8-8-8-8-8-8-8-8-8-8-8-8-8-8-8--8-8-8-8-8-8-8-8-8-8-8-8-8--|
     . . . . . . . . . . . . . . . .  . . . . . . . . . . . .


[Verse] "Been looking forward to the future.."

e|------------------------------------------------------------------|
B|------------------------------------------------------------------|
G|----------------------------------8-------------------------------|  2x
D|-8---------------7----------------8888888-6666666-----------------|
A|-888888888888888-8888888-33333333-6666666-4444444-888888888888888-|
D|-888888888888888-7777777-33333333-----------------777777777777777-|
    ..............  ...... ........  ...... ....... ...............

Gtr 2:
e|-------------------------------14-14-14-13-13-13-13-11-11-11-11--13---|
B|------------16-16-14-13~----------------------------------------------|
G|---10-12-13-----------------------------------------------------------|
D|----------------------------------------------------------------------|
A|----------------------------------------------------------------------|
D|----------------------------------------------------------------------|

(Continued)
Gtr 2:
e|--------------------------|
B|--------------------------|
G|-1010-1111-1010-88--------| 8x
D|--------------------------|
A|--------------------------|
D|--------------------------|
   . .  . .   . . ..


[Chorus] "One night and one more time.."

 Gtr 1 & 2:
e|------------------------------------------------|
B|------------------------------------------------|
G|-1010101010101010-66666666-33333333-6666--------|
D|--8-8-8-8-8-8-8-8-44444444-11111111-4444/7777---|
A|--8-8-8-8-8-8-8-8-44444444-11111111-4444/8888---|
D|--8-8-8-8-8-8-8-8-44444444-11111111-4444/7777---|

(Continued)                                                    2x
e|---------------------------------------------|
B|---------------------------------------------|
G|-1010101010101010-66666666-8888888888888888--|
D|--8-8-8-8-8-8-8-8-44444444-6666666666666666--|
A|--8-8-8-8-8-8-8-8-44444444-6666666666666666--|
D|--8-8-8-8-8-8-8-8-44444444-6666666666666666--|


[Bridge] (Acoustic part)

Gtr 1 : (Figure the proper strumming..)
   Bbm  F  Eb  F# F
e|-xxx-xxx-xxx-xx-xx---           -xxx-xxx-xxx--------------------|
B|-222-111-444-22-11---           -222-111-444--------------------|
G|-333-222-333-33-22--- 3x Then   -333-222-333--------------------|
D|-333-333-111-44-33---           -333-333-111--3-----------------|
A|-111-333-xxx-44-33---           -111-333-xxx--3-----------------|
D|-xxx-xxx-xxx-xx-xx---           -xxx-xxx-xxx--333333333333333---|
                                                 ...........

Gtr 2: (Enters at the 3rd time)

e|--13-11-9-8--|-6-6-6-6-8-8-8-9-9-9-11-11-11-13-13-13-13--------------------|
B|-------------|-------------------------------------------------------------|
G|-(Tremolo----|-------------------------------------------------------------|
D|--picking)---|--------------------------------------------3----------------|
A|-------------|--------------------------------------------3----------------|
D|-------------|--------------------------------------------333333333333333--|
                                                             ...........

[Chorus 2]

Gtr 1 & 2:
e|---------------------------------------------------------------|
B|---------------------------------------------------------------|
G|------R----------------------R---------------------------------|
D|--8\--E-----------------8\---E-----------666666666-------------|
A|--8\--S-----------------8\---S-----------666666666-------------|
D|--8\--T-----------------8\---T-----------666666666--PICKSLIDE--|
                                           .....

[Chorus] "One night and one more time.."

 Gtr 1 & 2:
e|------------------------------------------------|
B|------------------------------------------------|
G|-1010101010101010-66666666-33333333-6666--------|
D|--8-8-8-8-8-8-8-8-44444444-11111111-4444/7777---|
A|--8-8-8-8-8-8-8-8-44444444-11111111-4444/8888---|
D|--8-8-8-8-8-8-8-8-44444444-11111111-4444/7777---|

(Continued)                                                    4x
e|---------------------------------------------|
B|---------------------------------------------|
G|-1010101010101010-66666666-8888888888888888--|
D|--8-8-8-8-8-8-8-8-44444444-6666666666666666--|
A|--8-8-8-8-8-8-8-8-44444444-6666666666666666--|
D|--8-8-8-8-8-8-8-8-44444444-6666666666666666--|


Last Chords:
e|--------|
B|--------|
G|--------|
D|---8~~--|
A|---8~~--|
D|---8~~--|

************************************

| x  Dead note
| /  Slide up
| \  Slide down
| ~  Vibrato

************************************

Thnks Fr The Mmrs Lyrics:


I'm gonna make you bend and break
(It sent you to me without wings)
Say a prayer but let the good times roll
In case God doesn't show
(Let the good times roll, let the good times roll)
And I want these words to make things right
But it's the wrongs that make the words come to life
"Who does he think he is?"
If that's the worst you got
Better put your fingers back to the keys

One night and one more time
Thanks for the memories
even though they weren't so great
"He tastes like you only sweeter"
One night, yeah, and one more time
Thanks for the memories, thanks for the memories
"He, he tastes like you only sweeter"

Been looking forward to the future
But my eyesight is going bad
And this crystal ball
It's always cloudy except for (except for)
When you look into the past (look into the past)
One night stand (one night stand off)

One night and one more time
Thanks for the memories
even though they weren't so great
"He tastes like you only sweeter"
One night, yeah, and one more time
Thanks for the memories, thanks for the memories
"He, he tastes like you only sweeter"

They say I only think in the form of crunching numbers
In hotel rooms collecting page six lovers
Get me out of my mind and get you out of those clothes
I'm a liner away from getting you into the mood, whoa

One night and one more time
Thanks for the memories
even though they weren't so great
"He tastes like you only sweeter"
One night, yeah, and one more time
Thanks for the memories, thanks for the memories
"He, he tastes like you only sweeter"

One night and one more time (One more night, one more time)
Thanks for the memories
even though they weren't so great
"He tastes like you only sweeter"
One night, yeah, and one more time (One more night, one more time)
Thanks for the memories, thanks for the memories
"He, he tastes like you only sweeter"
Suggest correction
What's this?
You can suggest a correction to this tab. Community and Mods will review your correction and vote to approve or reject it.
comments
print report bad tab
33 comments total. Showing first comments.
-1 reply
paul21 912 wrote on May 25 2007, 10:48 pm

Folks! Please correct me if my tab is wrong.Thanks!!

-1 reply
ju_ong_can 16 wrote on May 26 2007, 07:56 am

this tabber is f*cking insane..

You rated your tab by your own..

INSANE...

0 reply
paul21 912 wrote on May 26 2007, 08:38 am

No man,I have friends in the philippines who rate this tab.. Dont judge bcoz u dont know me!

guest
You may want to rate the tab now too:
select rating
Please do not post tabs as comments. Select "correction" instead!