Oops, an error
Loading. Please wait.
We have an official Thnks Fr Th Mmrs tab made by UG professional guitarists. Check out the tab »
×
170,172 views 108 this week
23 commentsread comments
1 2 3 4 5
x 45
add to favorites
×
Save as Personal and add changes to this tab that will be seen only by you. Learn more ›
×
You can save this tab as Personal to edit and correct it or add notes. All changes will be seen only by you. Learn more »
launch autoscroll
font size
0
reset
how to read this tab
guitar tuner
backing track
0:00
0:00
edit
Autoscroll
slow
fast
+/-
esc
set tempo
stop
----------------------------------------------------------------------------
                           Thnks Fr Th Mmrs - Fall Out Boy
----------------------------------------------------------------------------

Guitar I (D A D G B E) - 'Lead'
Guitar II (D A D G B E) - 'Rhythm'
Guitar III (D A D G B E) - 'Lead Acoustic'
Guitar IV (D A D G B E) - 'Rhythm Acoustic'

This song is actually played in Drop D. I've watched Patrick like a hawk on as many videos as I could.

[Intro & Verse]

    Guitar I:
E|---------------------------|------------------|
B|o-------------------------o|------------------|
G|---------------------------|-------------5----|
D|--15-15-16-16-15-15-13-13--|-15-15-16-16-5----|
A|o-------------------------o|-------------3----|
D|---------------------------|------------------|


[Chorus]

    Guitars I & II:
E|--------------------------|-----------------|
B|o-------------------------|-----------------|
G|--10-10-10-10-10-10-10-10-|-6-6-6-6-6-6-6-6-|
D|---8--8--8--8--8--8--8--8-|-4-4-4-4-4-4-4-4-|
A|o--8--8--8--8--8--8--8--8-|-4-4-4-4-4-4-4-4-|
D|---8--8--8--8--8--8--8--8-|-4-4-4-4-4-4-4-4-|

E|-----------------|------------------|
B|-----------------|------------------|
G|-3-3-3-3-3-3-3-3-|-6-6-6-6----------|
D|-1-1-1-1-1-1-1-1-|-4-4-4-4-7-7-7-7--|
A|-1-1-1-1-1-1-1-1-|-4-4-4-4-8-8-8-8--|
D|-1-1-1-1-1-1-1-1-|-4-4-4-4-7-7-7-7--|

E|-------------------------|-----------------|
B|-------------------------|-----------------|
G|-10-10-10-10-10-10-10-10-|-6-6-6-6-6-6-6-6-|
D|--8--8--8--8--8--8--8--8-|-4-4-4-4-4-4-4-4-|
A|--8--8--8--8--8--8--8--8-|-4-4-4-4-4-4-4-4-|
D|--8--8--8--8--8--8--8--8-|-4-4-4-4-4-4-4-4-|

E|-----------------|------------------|
B|-----------------|-----------------o|
G|-8-8-8-8-8-8-8-8-|-8-8-8-8-8-8-8-8--|
D|-6-6-6-6-6-6-6-6-|-6-6-6-6-6-6-6-6--|
A|-6-6-6-6-6-6-6-6-|-6-6-6-6-6-6-6-6-o|
D|-6-6-6-6-6-6-6-6-|-6-6-6-6-6-6-6-6--|


[Pre Verse]

     PM--------------------------------|    PM--------------------------|
|----------------|-----------------|----------------|-------------------|
|----------------|-----------------|----------------|-------------------|
|-3--------------|-----------------|-----3----------|-------------------|
|-3--------------|-----------------|-----3----------|-------------------|
|-1--1-1-1-1-1-1-|-1-1-1-1-1-1-1-1-|-1-1-1--1-1-1-1-|-1-1-1-1-1-1-1-1---|
|----------------|-----------------|----------------|-------------------|

    Guitars I & II:
       PM--------------------------|      PM---------------------------|
|----------------|-----------------|----------------|------------------|
|----------------|-----------------|----------------|------------------|
|-3--------------|-----------------|----------------|------------------|
|-3--------------|-----------------|-7--------------|------------------|
|-1--1-1-1-1-1-1-|-1-1-1-1-1-1-1-1-|-8--------------|------------------|
|----------------|-----------------|-7--7-7-7-7-7-7-|-3-3-3-3-3-3-3-3--|

     PM--------|      PM--------|      PM-------------------------------|
|----------------|----------------|----------------|--------------------|
|----------------|----------------|----------------|--------------------|
|-8--------------|-6--------------|----------------|--------------------|
|-8--------------|-6--------------|-7--------------|--------------------| x2
|-6--6-6-6-6-6-6-|-4--4-4-4-4-4-4-|-8--------------|--------------------|
|----------------|----------------|-7--7-7-7-7-7-7-|-7-7-7-7-7-7-7-7----|


[Chorus]

E|--------------------------|-----------------|
B|o-------------------------|-----------------|
G|--10-10-10-10-10-10-10-10-|-6-6-6-6-6-6-6-6-|
D|---8--8--8--8--8--8--8--8-|-4-4-4-4-4-4-4-4-|
A|o--8--8--8--8--8--8--8--8-|-4-4-4-4-4-4-4-4-|
D|---8--8--8--8--8--8--8--8-|-4-4-4-4-4-4-4-4-|

E|-----------------|------------------|
B|-----------------|------------------|
G|-3-3-3-3-3-3-3-3-|-6-6-6-6----------|
D|-1-1-1-1-1-1-1-1-|-4-4-4-4-7-7-7-7--|
A|-1-1-1-1-1-1-1-1-|-4-4-4-4-8-8-8-8--|
D|-1-1-1-1-1-1-1-1-|-4-4-4-4-7-7-7-7--|

E|-------------------------|------------------|
B|-------------------------|------------------|
G|-10-10-10-10-10-10-10-10-|-6-6-6-6-6-6-6-6-o|
D|--8--8--8--8--8--8--8--8-|-4-4-4-4-4-4-4-4--|
A|--8--8--8--8--8--8--8--8-|-4-4-4-4-4-4-4-4-o|
D|--8--8--8--8--8--8--8--8-|-4-4-4-4-4-4-4-4--|

E|-----------------|-----------------|
B|-----------------|-----------------|
G|-8-8-8-8-8-8-8-8-|-8-8-8-8-8-8-8-8-|
D|-6-6-6-6-6-6-6-6-|-6-6-6-6-6-6-6-6-|
A|-6-6-6-6-6-6-6-6-|-6-6-6-6-6-6-6-6-|
D|-6-6-6-6-6-6-6-6-|-6-6-6-6-6-6-6-6-|


[Bridge]

   Guitar IV:
E|---------------------------|---------------------------|
B|-2-(2)-2-(2)-(2)-2-(2)-(2)-|-1-(1)-1-(1)-(1)-1-(1)-(1)-|
G|-3-(3)-3-(3)-(3)-3-(3)-(3)-|-2-(2)-2-(2)-(2)-2-(2)-(2)-|
D|-3-(3)-3-(3)-(3)-3-(3)-(3)-|-3-(3)-3-(3)-(3)-3-(3)-(3)-|
A|-1-(1)-1-(1)-(1)-1-(1)-(1)-|-3-(3)-3-(3)-(3)-3-(3)-(3)-|
D|---------------------------|---------------------------|


  Guitar III:
E|---------------------------|---------------------------|
B|-2-(2)-2-(2)-(2)-2-(2)-(2)-|-1-(1)-1-(1)-(1)-1-(1)-(1)-|
G|-3-(3)-3-(3)-(3)-3-(3)-(3)-|-2-(2)-2-(2)-(2)-2-(2)-(2)-|
D|-3-(3)-3-(3)-(3)-3-(3)-(3)-|-3-(3)-3-(3)-(3)-3-(3)-(3)-|
A|-1-(1)-1-(1)-(1)-1-(1)-(1)-|-3-(3)-3-(3)-(3)-3-(3)-(3)-|
D|---------------------------|---------------------------|

E|---------------------------|-------------------------|
B|-7-(7)-7-(7)-(7)-7-(7)-(7)-|-2-(2)-2-(2)-1-(1)-1-(1)-|
G|-8-(8)-8-(8)-(8)-8-(8)-(8)-|-3-(3)-3-(3)-2-(2)-2-(2)-|
D|-8-(8)-8-(8)-(8)-8-(8)-(8)-|-4-(4)-4-(4)-3-(3)-3-(3)-|
A|-6-(6)-6-(6)-(6)-6-(6)-(6)-|-4-(4)-4-(4)-3-(3)-3-(3)-|
D|---------------------------|-------------------------|

E|---------------------------|-------------------------|
B|-7-(7)-7-(7)-(7)-7-(7)-(7)-|-2-(2)-2-(2)-1-(1)-1-(1)-|
G|-8-(8)-8-(8)-(8)-8-(8)-(8)-|-3-(3)-3-(3)-2-(2)-2-(2)-|
D|-8-(8)-8-(8)-(8)-8-(8)-(8)-|-4-(4)-4-(4)-3-(3)-3-(3)-|
A|-6-(6)-6-(6)-(6)-6-(6)-(6)-|-4-(4)-4-(4)-3-(3)-3-(3)-|
D|---------------------------|-------------------------|

E|----------------------------|----------------------------|
B|--2-(2)-2-(2)-(2)-2-(2)-(2)-|--1-(1)-1-(1)-(1)-1-(1)-(1)-|
G|--3-(3)-3-(3)-(3)-3-(3)-(3)-|--2-(2)-2-(2)-(2)-2-(2)-(2)-|
D|--3-(3)-3-(3)-(3)-3-(3)-(3)-|--3-(3)-3-(3)-(3)-3-(3)-(3)-|
A|--1-(1)-1-(1)-(1)-1-(1)-(1)-|--3-(3)-3-(3)-(3)-3-(3)-(3)-|
D|----------------------------|----------------------------|

E|-13-------------------------|-11-------------------------|
B|----------------------------|----------------------------|
G|----------------------------|----------------------------|
D|----------------------------|----------------------------|
A|----------------------------|----------------------------|
D|----------------------------|----------------------------|

E|---------------------------|-------------------------|
B|-7-(7)-7-(7)-(7)-7-(7)-(7)-|-2-(2)-2-(2)-1-(1)-1-(1)-|
G|-8-(8)-8-(8)-(8)-8-(8)-(8)-|-3-(3)-3-(3)-2-(2)-2-(2)-|
D|-8-(8)-8-(8)-(8)-8-(8)-(8)-|-4-(4)-4-(4)-3-(3)-3-(3)-|
A|-6-(6)-6-(6)-(6)-6-(6)-(6)-|-4-(4)-4-(4)-3-(3)-3-(3)-|
D|---------------------------|-------------------------|

E|-9-------------------------|-8-----------------------|
B|---------------------------|-------------------------|
G|---------------------------|-------------------------|
D|---------------------------|-------------------------|
A|---------------------------|-------------------------|
D|---------------------------|-------------------------|

E|---------------------------|-----------------------------|
B|-2-(2)-2-(2)-(2)-2-(2)-(2)-|-1-(1)--1-(1)-(1)--1-(1)-(1)-|
G|-3-(3)-3-(3)-(3)-3-(3)-(3)-|-2-(2)--2-(2)-(2)--2-(2)-(2)-|
D|-3-(3)-3-(3)-(3)-3-(3)-(3)-|-3-(3)--3-(3)-(3)--3-(3)-(3)-|
A|-1-(1)-1-(1)-(1)-1-(1)-(1)-|-3-(3)--3-(3)-(3)--3-(3)-(3)-|
D|---------------------------|-----------------------------|

E|-6--6--6--6---8--8--8---9--|-9--9--11-11--11--11-13--13--|
B|---------------------------|-----------------------------|
G|---------------------------|-----------------------------|
D|---------------------------|-----------------------------|
A|---------------------------|-----------------------------|
D|---------------------------|-----------------------------|


                       [Guitar II]
                           PM------------------------------|
|---------------------|----------------|-------------------|
|--7------------------|----------------|-------------------|
|--8------------------|----------------|-------------------|
|--8------------------|-3--------------|-------------------|
|--6------------------|-3--------------|-------------------|
|---------------------|-3--3-3-3-3-3-3-|-------------------|

                       [Guitar I]
                           PM------------------------------|
|-13-13----(13)--(13)-|----------------|-------------------|
|---------------------|----------------|-------------------|
|---------------------|----------------|-------------------|
|---------------------|-3--------------|-------------------|
|---------------------|-3--------------|-------------------|
|---------------------|-3--3-3-3-3-3-3-|-3-3-3-3-3-3-3-3---|


["Guitar-less" Chorus]

E|--------------------------|--------------------------|
B|o-------------------------|-------------------------o|
G|--------------------------|--------------------------|
D|--8--(8)\-----------------|-8--(8)\------------------|
A|o-8--(8)\-----------------|-8--(8)\-----------------o|
D|--8--(8)\-----------------|-8--(8)\------------------|

E|-----------------|--------------------|
B|-----------------|--------------------|
G|-----------------|--------------------|
D|-6-6-6-6-6-6-6-6-|-6-6-6-6-6-6-6-6----|
A|-6-6-6-6-6-6-6-6-|-6-6-6-6-6-6-6-6----|
D|-6-6-6-6-6-6-6-6-|-6-6-6-6-6-6-6-6----|

E|--------------------------|-----------------|
B|o-------------------------|-----------------|
G|--10-10-10-10-10-10-10-10-|-6-6-6-6-6-6-6-6-|
D|---8--8--8--8--8--8--8--8-|-4-4-4-4-4-4-4-4-|
A|o--8--8--8--8--8--8--8--8-|-4-4-4-4-4-4-4-4-|
D|---8--8--8--8--8--8--8--8-|-4-4-4-4-4-4-4-4-|

E|-----------------|------------------|
B|-----------------|------------------|
G|-3-3-3-3-3-3-3-3-|-6-6-6-6----------|
D|-1-1-1-1-1-1-1-1-|-4-4-4-4-7-7-7-7--|
A|-1-1-1-1-1-1-1-1-|-4-4-4-4-8-8-8-8--|
D|-1-1-1-1-1-1-1-1-|-4-4-4-4-7-7-7-7--|

E|-------------------------|-----------------|
B|-------------------------|-----------------|
G|-10-10-10-10-10-10-10-10-|-6-6-6-6-6-6-6-6-|
D|--8--8--8--8--8--8--8--8-|-4-4-4-4-4-4-4-4-|
A|--8--8--8--8--8--8--8--8-|-4-4-4-4-4-4-4-4-|
D|--8--8--8--8--8--8--8--8-|-4-4-4-4-4-4-4-4-|

E|-----------------|------------------|
B|-----------------|-----------------o|
G|-8-8-8-8-8-8-8-8-|-8-8-8-8-8-8-8-8--|
D|-6-6-6-6-6-6-6-6-|-6-6-6-6-6-6-6-6--|
A|-6-6-6-6-6-6-6-6-|-6-6-6-6-6-6-6-6-o|
D|-6-6-6-6-6-6-6-6-|-6-6-6-6-6-6-6-6--|

E|------|
B|------|
G|------|
D|-8----|
A|-8----|
D|-8----|

*************************

||o - repeat start
|o| - repeat end
| PM palm mute note
| /  slide up
| \  slide down
| h  hammer-on
| p  pull-off
| ~  vibrato
| +  harmonic
| x  Mute note

*************************
Suggest correction
Creating personal tab
Creating personal tab
You can edit any tab online and save it as your Personal.

You can edit, replace or remove any tab part or add personal notes – all changes will be seen only by you.

Personal tabs can be accessed anytime from any device, even offline.
Learn more »
comments
print report bad tab
23 comments total. Showing first comments.
+1 reply
sphinx_Godcares09 68 Jul 02, 2007 02:47 AM

um, mr. kiefermatot, i wish there is something you could do to make your tab easier to understand. see, i dont really know how to apply these:

W - whole; H - half; Q - quarter; E - 8th; S - 16th; T - 32nd; X - 64th; a - acciaccatura
+ - note tied to previous; . - note dotted; .. - note double dotted
Uncapitalized letters represent notes that are staccato (1/2 duration)
Irregular groupings are notated above the duration line
Duration letters will always appear directly above the note/fret number it represents the
duration for. Duration letters with no fret number below them represent rests. Multi-
bar rests are notated in the form Wxn, where n is the number of bars to rest for. Low
melody durations appear below the staff

Tablature Legend
----------------
h - hammer-on
p - pull-off
b - bend
pb - pre-bend
r - bend release (if no number after the r, then release immediately)
/\ - slide into or out of (from/to "nowhere")
s - legato slide
S - shift slide
- natural harmonic
[n] - artificial harmonic
n(n) - tapped harmonic
~ - vibrato
tr - trill
T - tap
TP - trem. picking
PM - palm muting
\n/ - tremolo bar dip; n = amount to dip
\n - tremolo bar down
n/ - tremolo bar up
/n\ - tremolo bar inverted dip
= - hold bend; also acts as connecting device for hammers/pulls
- volume swell (louder/softer)
x - on rhythm slash represents muted slash
o - on rhythm slash represents single note slash

Misc Legend
-----------
| - bar
|| - double bar
||o - repeat start
o|| - repeat end
*| - double bar (ending)
: - bar (freetime)
$ - Segno
& - Coda
Tempo markers - = BPM(8/16=s8/s16), where s8 = swing 8ths, s16 = swing 16ths


i play quite good but i didnt acquire my guitar skills through formal lessons. just self study. i wish you could make it easier or you could help me understand those stuff. thank you so much!

please forgive my ignorance.

0 reply
sphinx_Godcares09 68 Jul 02, 2007 02:50 AM

oh, those simple things like pull-offs, hammer-ons, etc., i know them. but those acciaccatura, legato slide, etc., um, i dont know them. sorry.

0 reply
Gtr_god_69 833 Jul 05, 2007 08:56 PM

it sounds umm.. how do i say it?.. DE LA FREGADA. sounds if u pay really attention but sounds horrible. sphinx.. i cant believe u dont know how to do a slide!!! and most of them are pretty easy. Just the tempos i dont get them

guest
You may want to rate the tab now too:
select rating
Wanna post a correction for this tab? Suggest correction