Oops, an error
Loading. Please wait.
We have an official Thriller tab made by UG professional guitarists. Check out the tab »
×
5,368 views 1 this week
2 commentsread comments
1 2 3 4 5
x 4
add to favorites
×
Save as Personal and add changes to this tab that will be seen only by you. Learn more ›
×
You can save this tab as Personal to edit and correct it or add notes. All changes will be seen only by you. Learn more »
launch autoscroll
font size
0
reset
guitar tuner
edit
Autoscroll
slow
fast
+/-
esc
set tempo
stop
Author
Difficulty
Drop D


Intro

G----------------------------|
D----------------------------|   x4
A----------------------------|
D-00000--0-0-0-0--0-0--00000-|


Verse 1

-No bass-

Bridge

G-----------------------------------------|
D-----------------------------------------|
A-0-2-22222222-00000000-------------------|
D-----------------------55555555-00000000-|


G-------------------------------------|
D-------------------------------------|
A-------------------------------------|
D-55555555-00000000-55555555-77777777-|


G---------------------------------------|
D---------------------------------------|
A-22222222-00000000-------------------5\|
D-------------------55555555-00000000---|


CHORUS

G-------------------------------------|
D-------------------------------------|
A----------22222222-------------------|
D-00000000----------44444444-77777777-|
                                           
                                           x2                     

G---------------------------------------|
D---------------------------------------|
A---------------------------------------|    
D-5555555/99999999-77-7-7-77-7-77-77-77-|
  
                 
Post CHORUS

G----------------------------|
D----------------------------|    x4
A----------------------------|
D-00000--0-0-0-0--0-0--00000-|


Verse 2

G------------------------------------------------------|
D------------------------------------------------------|
A------------------------------------------------------|
D-0-------------0-0--0-0--0-0--0-0--0-0--0-0--0-0--0-0-|
                      

BRIDGE

G-----------------------------------------|
D-----------------------------------------|
A-0-2-22222222-00000000-------------------|
D-----------------------55555555-00000000-|


G-------------------------------------|
D-------------------------------------|
A-------------------------------------|
D-55555555-00000000-55555555-77777777-|


G---------------------------------------|
D---------------------------------------|
A-22222222-00000000-------------------5\|
D-------------------55555555-00000000---|
 

CHORUS

G-------------------------------------|
D-------------------------------------|
A----------22222222-------------------|
D-00000000----------44444444-77777777-|
                                           
                                           x2                     

G---------------------------------------|
D---------------------------------------|
A---------------------------------------|    
D-5555555/99999999-77-7-7-77-7-77-77-77-|
                   

Outro

G----------------------------|
D----------------------------|  x4
A----------------------------|
D-00000--0-0-0-0--0-0--00000-|
 this my first tabs. I hope you'll like it.

            
            
Suggest correction
Creating personal tab
Creating personal tab
You can edit any tab online and save it as your Personal.

You can edit, replace or remove any tab part or add personal notes – all changes will be seen only by you.

Personal tabs can be accessed anytime from any device, even offline.
Learn more »
comments
print report bad tab
2 comments total.
+1 reply
kerjacklebass&! 52 Mar 31, 2008 12:55 PM

i gave it five stars,,,even though its not the way i play it its just like exactly the same as the otherone....well its not but it sounds the same the way u play it...im used to using the D string the whole song though but still nice work

0 reply
jarrett8798 10 Dec 04, 2014 05:46 AM

First verse there's a held out note on a d other then that great job

guest
You may want to rate the tab now too:
select rating
Wanna post a correction for this tab? Suggest correction