Oops, an error
Loading. Please wait.

Thriller Tab

version 3
version 3

Whole song

Interactive

82,010 views 63 this week
14 commentsread comments
1 2 3 4 5
x 32
add to favorites
launch autoscroll
font size
0
reset
how to read this tab
guitar tuner
Autoscroll
slow
fast
+/-
esc
set tempo
stop
Help us to improve Ultimate-Guitar.com Take our survey!
×
Author
Difficulty
Tuning
intermediate
D A D G B E
Title – Thriller
Artist- Fall Out Boy
Album – Infinity On High

Tuning: Drop D
Guitar 1 – Clean
Guitar 2 – Distortion
Guitar 3 – Distortion


Sry if this is long, but if you haven't heard the song, you'll get a good idea of how it
 Also got the second guitar and a third guitar that comes in during the second verse.
is the way I like to play it,(I'm a fan of Drop D) and the arrangement (1st, 2nd, 3rd,) 
made the most sense.

[Intro]

Guitar 1
e|----0------------0-------|-----0------------0-------|
B|-10---10-10---10---10-10-|--10---10-10---10---10-10-|
G|7--7-----7---7--7----7---|-6--6----6----6--6----6---|
D|-------------------------|--------------------------|
A|-------------------------|--------------------------|
D|-------------------------|--------------------------|

1.              Yeah         what you      would never
                             critics said   happen.
Guitar 1
e|----0------------0-------|-----0------------0-------|
B|-10---10-10---10---10-10-|--10---10-10---10---10-10-|
G|0--0----0—---0—-0----0---|--------------------------|
D|-------------------------|-7--7----7----7--7----7---|
A|-------------------------|--------------------------|
D|-------------------------|--------------------------|

We dedicate    to anybody         couldn’t make it
this album     people said

Guitar 1
e|----0------------0-------|-----0------------0-------|
B|-10---10-10---10---10-10-|--10---10-10---10---10-10-|
G|7--7-----7---7--7----7---|-6--6----6----6--6----6---|
D|-------------------------|--------------------------|
A|-------------------------|--------------------------|
D|-------------------------|--------------------------|

To the fans   held us down  till         came around.
that                         everybody

Guitar 1
e|----0------------0-------|-----0------------0-------|
B|-10---10-10---10---10-10-|--10---10-10---10---10-10-|
G|0--0----0—---0—-0----0---|--------------------------|
D|-------------------------|-7--7----7----7--7----7---|
A|-------------------------|--------------------------|
D|-------------------------|--------------------------|

                              Welcome……… it’s here

Guitar 1

e|--------------------------|---------------------------------|
B|--------------------------|---------------------------------|
G|-7-7-7-7--4/14-14-14-11-9-|-7-7-7-7--12-12-12-11--11-11-9-9-|
D|--------------------------|---------------------------------|x2
A|-5-5-5-5—-2/12-12-12--9-7-|-5-5-5-5--10-10-10--9---9--9-7-7-|
D|--------------------------|---------------------------------|

Guitar 2
e|-------------------------|
B|-------------------------|
G|-------------------------|
D|-0000-0-0-0-0—-0-0--0000-|x4
A|-0000-0-0-0-0—-0-0--0000-|
D|-0000-0-0-0-0--0-0--0000-|
   **** * * * *  * *  ****

[Verse]

Guitar 1
e|----0------------0-------|-----0------------0-------|
B|-10---10-10---10---10-10-|--10---10-10---10---10-10-|
G|7--7-----7---7--7----7---|-6--6----6----6--6----6---|
D|-------------------------|--------------------------|
A|-------------------------|--------------------------|
D|-------------------------|--------------------------|

1.      Last                 summer we took threes
2.      I can take           your problems away

Guitar 2
e|----|
B|----|
G|----|
D|-0~-|
A|-0~-|
D|-0~-|

Guitar 1
e|----0------------0-------|-----0------------0-------|
B|-10---10-10---10---10-10-|--10---10-10---10---10-10-|
G|0--0----0—---0—-0----0---|--------------------------|
D|-------------------------|-7--7----7----7--7----7---|
A|-------------------------|--------------------------|
D|-------------------------|--------------------------|

        Across the board                        But by
    From nodding away                           of my

Guitar 1
e|----0------------0-------|-----0------------0-------|
B|-10---10-10---10---10-10-|--10---10-10---10---10-10-|
G|7--7-----7---7--7----7---|-6--6----6----6--6----6---|
D|-------------------------|--------------------------|
A|-------------------------|--------------------------|
D|-------------------------|--------------------------|

   fall,                we were  a        cover story
   head,                cuz that’s just the kinda of boy

Guitar 2
e|-------------------------------------------|
B|-------------------------------------------|
G|--7-7-7-7-7-7--12-12--11-11-11-11--9-9-9-9-|
D|-------------------------------------------|
A|--5-5-5-5-5—5—-10-10---9—-9—-9--9--7-7-7-7-|
D|-------------------------------------------|

Guitar 3 (Second time only)
e|-------------------------|--------------------------|
B|-------------------------|--------------------------|
G|-------------------------|--------------------------|
D|------0-0--------0-0-----|---0-0--------0-0---------|
A|------0-0--------0-0-----|--------------------------|
D|------0-0--------0-0-----|---0-0--------0-0---------|
        * *        * *         * *        * *

Guitar 1
e|----0------------0-------|-----0------------0-------|
B|-10---10-10---10---10-10-|--10---10-10---10---10-10-|
G|0--0----0—---0—-0----0---|--------------------------|
D|-------------------------|-7--7----7----7--7----7---|
A|-------------------------|--------------------------|
D|-------------------------|--------------------------|

        Now in stores
        That I am

Guitar 2
e|-------------------------------------------|
B|-------------------------------------------|
G|--7-7-7-7-7-7--12-12--11-11-11-11--9-9-9-9-|
D|-------------------------------------------|
A|--5-5-5-5-5—5—-10-10---9—-9—-9--9--7-7-7-7-|
D|-------------------------------------------|

Guitar 3 (Second time only)
e|-------------------------|--------------------------|
B|-------------------------|--------------------------|
G|-------------------------|--------------------------|
D|------0-0--------0-0-----|---0-0-0-0-0-0-0-0-0-0-0--|
A|------0-0--------0-0-----|--------------------------|
D|------0-0--------0-0-----|---0-0-0-0-0-0-0-0-0-0-0--|
        * *        * *         * * * * * * * * * * *

[Bridge]

Guitar 1
e|----------------------------|-----------------------------------|
B|----------------------------|-----------------------------------|
G|--7-7-7-7--4/14-14-14-11-9--|--7-7-7-7--12-12-12-11--11-11-9-9--|
D|----------------------------|-----------------------------------|
A|--5-5-5-5—-2/12-12-12--9-7--|--5-5-5-5--10-10-10--9---9--9-7-7--|
D|----------------------------|-----------------------------------|

        Make us         poster          boys in the scene,  but
        The only        thing           I haven’t done that is good

Guitar 2
e|---------------------------------|---------------------------------|
B|---------------------------------|---------------------------------|
G|---------------------------------|---------------------------------|
D|-9-9-9-9-9-9-9-9-7-7-7-7-7-7-7-7-|-5-5-5-5-5-5-5-5-0-0-0-0-0-0-0-0-|
A|-9-9-9-9-9-9-9-9-7-7-7-7-7-7-7-7-|-5-5-5-5-5-5-5-5-0-0-0-0-0-0-0-0-|
D|-9-9-9-9-9-9-9-9-7-7-7-7-7-7-7-7-|-5-5-5-5-5-5-5-5-0-0-0-0-0-0-0-0-|

Guitar 1

e|---------------------------------|---------------------------------|
B|---------------------------------|---------------------------------|
G|--7-7-7-7-12-12-11-11-14-14-14---|--7-7-7-7-7-7-7-7-7-7-7-7-7-7-7--|
D|---------------------------------|---------------------------------|
A|--5-5-5-5-10-10--9--9-12-12-12---|--5-5-5-5-5-5-5-5-5-5-5-5-5-5-5--|
D|---------------------------------|---------------------------------|

        we are      not making our       acceptance speech.        I have
        and it’s me and my password   at the afterlife     I was

Guitar 2
e|---------------------------------|---------------------------------|
B|---------------------------------|---------------------------------|
G|---------------------------------|---------------------------------|
D|-5-5-5-5-5-5-5-5-0-0-0-0-0-0-0-0-|-5-5-5-5-5-5-5-5-5-5-5-5-5-5-5-5-|
A|-5-5-5-5-5-5-5-5-0-0-0-0-0-0-0-0-|-5-5-5-5-5-5-5-5-5-5-5-5-5-5-5-5-|
D|-5-5-5-5-5-5-5-5-0-0-0-0-0-0-0-0-|-5-5-5-5-5-5-5-5-5-5-5-5-5-5-5-5-|

Guitar 1
e|----------------------------|-----------------------------------|
B|----------------------------|-----------------------------------|
G|--7-7-7-7--4/14-14-14-11-9--|--7-7-7-7--12-12-12-11--11-11-9-9--|
D|----------------------------|-----------------------------------|
A|--5-5-5-5—-2/12-12-12--9-7--|--5-5-5-5--10-10-10--9---9--9-7-7--|
D|----------------------------|-----------------------------------|

 Found the safest place to keep all of our mistakes
 The one, was the one who made all of our hearts beat

Guitar 2
e|---------------------------------|---------------------------------|
B|---------------------------------|---------------------------------|
G|---------------------------------|---------------------------------|
D|-9-9-9-9-9-9-9-9-7-7-7-7-7-7-7-7-|-5-5-5-5-5-5-5-5-0-0-0-0-0-0-0-0-|
A|-9-9-9-9-9-9-9-9-7-7-7-7-7-7-7-7-|-5-5-5-5-5-5-5-5-0-0-0-0-0-0-0-0-|
D|-9-9-9-9-9-9-9-9-7-7-7-7-7-7-7-7-|-5-5-5-5-5-5-5-5-0-0-0-0-0-0-0-0-|

Guitar 1
e|-------------------------------------------------|
B|-------------------------------------------------|
G|--7-7-7-7-7-7-7-7-7-7-7-7-7-7-7-7-7-7-7-7-7-7-7--|
D|-------------------------------------------------|
A|--5-5-5-5-5-5-5-5-5-5-5-5-5-5-5-5-5-5-5-5-5-5-5--|
D|-------------------------------------------------|

Every dot-com’s refreshing for a journal update.
To the death march.

Guitar 2
e|-------------------------------------------------|
B|-------------------------------------------------|
G|-----------------(11-11-11/14-14-14-14-14-14-14)-|
D|-5~/---------------------------------------------|
A|-5~/-------------(-9--9—-9/12-12-12-12-12-12-12)-|
D|-5~/---------------------------------------------|

[Chorus]

Guitar 1 and 2
e|-----------------------------------------------------------------|
B|-----------------------------------------------------------------|
G|-----------------------------------------------------------------|
D|-0-0-0-0-0-0-0-0-9-9-9-9-9-9-9-9-4-4-4-4-4-4-4-4-7-7-7-7-7-7-7-7-|
A|-0-0-0-0-0-0-0-0-9-9-9-9-9-9-9-9-4-4-4-4-4-4-4-4-7-7-7-7-7-7-7-7-|
D|-0-0-0-0-0-0-0-0-9-9-9-9-9-9-9-9-4-4-4-4-4-4-4-4-7-7-7-7-7-7-7-7-|

 So long live the car crash hearts, cry on the couch, all the poets
                                                              come to

Guitar 1 and 2
e|-----------------------------------------------------------------|
B|-----------------------------------------------------------------|
G|-----------------------------------------------------------------|
D|-5-5-5-5-5-5-5-5-9-9-9-9-9-9-9-9-7-7--7--7--7-7--7--7--7-7--7----|
A|-5-5-5-5-5-5-5-5-9-9-9-9-9-9-9-9-7-7--7--7--7-7--7--7--7-7--7----|
D|-5-5-5-5-5-5-5-5-9-9-9-9-9-9-9-9-7-7--7--7--7-7--7--7--7-7--7----|
                                   * *        * *        * *

Life.                 Fix me in   forty-five

BREAKDOWN

Guitar 1 and 2
e|--0~--------------------------------------------------------|
B|--0~--------------------------------------------------------|
G|--0~--------------------------------------------------------|
D|--0~--------------------------------------------------------|x2
A|--0~--------------------------------------------------------|
D|--0~--------------------------------------------------------|

1. Long live the car crash hearts (long live the car crash hearts)
2. Long live the car crash hearts (long live the car crash hearts)

Guitar 1
e|----0------------0-------|-----0------------0-------|
B|-10---10-10---10---10-10-|--10---10-10---10---10-10-|
G|7--7-----7---7--7----7---|-6--6----6----6--6----6---|
D|-------------------------|--------------------------|
A|-------------------------|--------------------------|
D|-------------------------|--------------------------|

Long       car crash hearts  cry on the   all the poets
Live the                     couch        come to

Guitar 1
e|----0------------0-------|-----0------------0-------|
B|-10---10-10---10---10-10-|--10---10-10---10---10-10-|
G|0--0----0—---0—-0----0---|--------------------------|
D|-------------------------|-7--7----7----7--7----7---|
A|-------------------------|--------------------------|
D|-------------------------|--------------------------|

Life.              Fix me in forty five

[Outro]

Guitar 2
e|-------------------------|
B|-------------------------|
G|-------------------------|
D|-0000-0-0-0-0—-0-0--0000-|x4
A|-0000-0-0-0-0—-0-0--0000-|
D|-0000-0-0-0-0--0-0--0000-|
   **** * * * *  * *  ****


************************************

/ = slide
* = palm muted
( ) = second verse only

************************************
Suggest correction
comments
print report bad tab
14 comments total. Showing first comments.
+2 reply
pratt14 10 Jan 29, 2007 09:21 PM

Finally! One that's correct. Great work!

0 reply
bleed0range 82 Feb 02, 2007 04:37 PM

This is an awesome tab.

0 reply
Supadude 10 Feb 03, 2007 06:32 PM

This tab is amazing and the lyrics are straight on!!!!

guest
You may want to rate the tab now too:
select rating
Wanna post a correction for this tab? Suggest correction