Oops, an error
Loading. Please wait.
We have an official Thriller tab made by UG professional guitarists. Check out the tab »
×
6,190 views 1 this week
7 commentsread comments
1 2 3 4 5
x 8
add to favorites
×
Save as Personal and add changes to this tab that will be seen only by you. Learn more ›
×
You can save this tab as Personal to edit and correct it or add notes. All changes will be seen only by you. Learn more »
launch autoscroll
font size
0
reset
how to read this tab
guitar tuner
edit
Autoscroll
slow
fast
+/-
esc
set tempo
stop
Here it is. if you have a little trouble understanding it just comment on what i can do to help.

Guitar 1 (clean)
e|------0---------|   e|------0---------| e|------0-------|
B|---10----10-10--|   B|---10----10-10--| B|---10---10-10-|
G|--7--7-----7----|x2 G|--6--6-----6----| G|--0--0----0---|
D|----------------|   D|----------------| D|--------------|x2
A|----------------|   A|----------------| A|--------------|
D|----------------|   D|----------------| D|--------------|
                              x2
e|------0--------|       (e|------0--------------|)
B|---10---10-10--|       (B|---10---10-10-10-10--|)
G|---------------|       (G|---------------------|)
D|--7--7----7----|x2     (D|--7--7----7--7--7----|)
A|---------------|       (A|---------------------|)
D|---------------|       (D|---------------------|)
                            play this part on last measure before distortion
Guitar 2 (Clean)

e|----------------------|
B|----------------------|
G|--7~---6~---0~--------|
D|------------------7~--|
A|----------------------|
D|----------------------|

Guitar three (Distortion)

e|----------------------------|
B|----------------------------|
G|----------------------------|
D|----------------------------|
A|--0000-0-0-0-0-0-0-00000----|
D|--0000-0-0-0-0-0-0-00000----|
PM----------------------------|

Guitar 4 (Distortion)

e|--------------------------------------------------------|
B|--------------------------------------------------------|
G|--777/16161614141414\111199-777/1212121111111111111111--|
D|--xxx--x-x-x-x-x-x-x--x-xxx-xxx--x-x-x-x-x-x-x-x-x-x-x--|
A|--555/14141412121212\-9-977-555/101010-9-9-9-9-9-9-9-9--|
D|--------------------------------------------------------|

Guitars 3 & 4
e|----------|
B|----------|
G|----------|
D|--0-------|
A|--0-------|
D|--0-------|


Guitar 1 (clean)
e|------0---------|   e|------0---------| e|------0-------|
B|---10----10-10--|   B|---10----10-10--| B|---10---10-10-|
G|--7--7-----7----|x2 G|--6--6-----6----| G|--0--0----0---|
D|----------------|   D|----------------| D|--------------|x2
A|----------------|   A|----------------| A|--------------|
D|----------------|   D|----------------| D|--------------|

Last Summer we took threes across the board

e|------0--------|
B|---10---10-10--|
G|---------------|
D|--7--7----7----|x2
A|---------------|
D|---------------|

Guitar 4

"But by far..."

e|-------------------------------------------------|
B|-------------------------------------------------|
G|--777777777777121212121111111111111111-99999999--|
D|--xxxxxxxxxxxx-x-x-x-x-x-x-x-x-x-x-x-x-xxxxxxxx--|
A|--55555555555510101010-9-9-9-9-9-9-9-9-77777777--|
D|-------------------------------------------------|

e|--------------------------------------------------|
B|--------------------------------------------------|
G|--777777777777/121212121111111111111111-99999999--|
D|--xxxxxxxxxxxx--x-x-x-x-x-x-x-x-x-x-x-x-xxxxxxxx--|
A|--555555555555/10101010-9-9-9-9-9-9-9-9-77777777--|
D|--------------------------------------------------|

Guitar 5 (Distortion)

e|-------------------------------------------------------------|
B|-------------------------------------------------------------|
G|-4-6-777161616161414141414111199-77771212121111111111111199--|
D|-x-x-xxx-x-x-x-x-x-x-x-x-x-x-xxx-xxxx-x-x-x-x-x-x-x-x-x-xxx--|
A|-2-4-555141414141212121212-9-977-5555101010-9-9-9-9-9-9-977--|
D|-------------------------------------------------------------|
"make us poster boys for your scene"

e|----------------------------------------------|
B|----------------------------------------------|
G|--777712121211111111141414147777777777777777--|
D|--xxxx-x-x-x-x-x-x-x-x-x-x-xxxxxxxxxxxxxxxxx--|
A|--5555101010-9-9-9-9121212125555555555555555--|
D|----------------------------------------------|
"but we are not making an acceptance speach"
Guitar 3
"make us Poster boys for your scene"
e|---------------------------------------------------------------|
B|---------------------------------------------------------------|
G|1111111111111111-99999999-77777777----------77777777-----------|
D|-9-9-9-9-9-9-9-9-77777777-55555555-00000000-55555555-00000000--|
A|-9-9-9-9-9-9-9-9-77777777-55555555-00000000-55555555-00000000--|
D|-9-9-9-9-9-9-9-9-77777777-55555555-00000000-55555555-00000000--|

e|--------------------|
B|--------------------|
G|--7777777777777777--|
D|--5555555555555555--|
A|--5555555555555555--|
D|--5555555555555555--|

e|---------------------------------------------------------------|
B|---------------------------------------------------------------|
G|1111111111111111-99999999-77777777----------77777777-----------|
D|-9-9-9-9-9-9-9-9-77777777-55555555-00000000-55555555-00000000--|
A|-9-9-9-9-9-9-9-9-77777777-55555555-00000000-55555555-00000000--|
D|-9-9-9-9-9-9-9-9-77777777-55555555-00000000-55555555-00000000--|

Guitar 3     Guitar 4                   another distorted guitar does the                
                                   pic slide

e|------|    e|--------------------|  e|------|
B|------|    B|--------------------|  B|------|
G|--7\--|    G|--7777777777777777--|  G|------|
D|--5\--|    D|--xxxxxxxxxxxxxxxx--|  D|--x\--|
A|--5\--|    A|--5555555555555555--|  A|--x\--|
D|--5\--|    D|--------------------|  D|--x\--|

 "every dot coms, refreshing for a journal update..."

Guitars 3 & 4

e|------------------------------------------------------------------------|
B|------------------------------------------------------------------------|
G|-----------111111111111111-77777777-99999999-77777777-1111111111111111--|
D|--00000000-9-9-9-9-9-9-9-9-44444444-77777777-55555555--9-9-9-9-9-9-9-9--|
A|--00000000-9-9-9-9-9-9-9-9-55555555-77777777-55555555--9-9-9-9-9-9-9-9--|
D|--00000000-9-9-9-9-9-9-9-9-44444444-77777777-55555555--9-9-9-9-9-9-9-9--|

"long live the car crash hearts"

e|-------------------|
B|-------------------|
G|----9-99--9-99--9--|  "Fix me in forty-five..."
D|----7-77--7-77--7--|
A|--777-77777-77777--|
D|--777-77777-77777--|
PM--**    **    **

Guitar 1 (clean)

e|------0---------|
B|---10----10-10--|
G|--7--7--7--7----|  "long live the car crash hearts"
D|----------------|
A|----------------|
D|----------------|

Guitar three (Distortion)

e|----------------------------|
B|----------------------------|
G|----------------------------|
D|----------------------------|
A|--0000-0-0-0-0-0-0-00000----|
D|--0000-0-0-0-0-0-0-00000----|
PM----------------------------|

Guitars 3 & 4
e|----------|
B|----------|
G|----------|
D|--0-------|  "i can take your problems away with a nod and a wave"
A|--0-------|
D|--0-------|

Guitar 4

          "of my hand..."

e|-------------------------------------------------|
B|-------------------------------------------------|
G|--777777777777121212121111111111111111-99999999--|
D|--xxxxxxxxxxxx-x-x-x-x-x-x-x-x-x-x-x-x-xxxxxxxx--|
A|--55555555555510101010-9-9-9-9-9-9-9-9-77777777--|
D|-------------------------------------------------|

e|--------------------------------------------------|
B|--------------------------------------------------|
G|--777777777777/121212121111111111111111-99999999--|
D|--xxxxxxxxxxxx--x-x-x-x-x-x-x-x-x-x-x-x-xxxxxxxx--|
A|--555555555555/10101010-9-9-9-9-9-9-9-9-77777777--|
D|--------------------------------------------------|

Guitar 3

e|--------------|    e|-------------|
B|--------------|    B|-------------|
G|--------------|    G|-------------|
D|--0-0----0-0--| x7 D|--000000000--|
A|--0-0----0-0--|    A|--000000000--|
D|--0-0----0-0--|    D|--000000000--|
PM***********************************


Guitar 5 (Distortion)

e|-------------------------------------------------------------|
B|-------------------------------------------------------------|
G|-4-6-777161616161414141414111199-77771212121111111111111199--|
D|-x-x-xxx-x-x-x-x-x-x-x-x-x-x-xxx-xxxx-x-x-x-x-x-x-x-x-x-xxx--|
A|-2-4-555141414141212121212-9-977-5555101010-9-9-9-9-9-9-977--|
D|-------------------------------------------------------------|
"the only thing i havent done now is die"

e|----------------------------------------------|
B|----------------------------------------------|
G|--777712121211111111141414147777777777777777--|
D|--xxxx-x-x-x-x-x-x-x-x-x-x-xxxxxxxxxxxxxxxxx--|
A|--5555101010-9-9-9-9121212125555555555555555--|
D|----------------------------------------------|
"and its me and my plus one at the after life"

Guitar 3

"the only thing i havent done now is die"
e|---------------------------------------------------------------|
B|---------------------------------------------------------------|
G|1111111111111111-99999999-77777777----------77777777-----------|
D|-9-9-9-9-9-9-9-9-77777777-55555555-00000000-55555555-00000000--|
A|-9-9-9-9-9-9-9-9-77777777-55555555-00000000-55555555-00000000--|
D|-9-9-9-9-9-9-9-9-77777777-55555555-00000000-55555555-00000000--|

e|--------------------|
B|--------------------|
G|--7777777777777777--|  "and its me and my plus one at the after life"
D|--5555555555555555--|
A|--5555555555555555--|
D|--5555555555555555--|

e|---------------------------------------------------------------|
B|---------------------------------------------------------------|
G|1111111111111111-99999999-77777777----------77777777-----------|
D|-9-9-9-9-9-9-9-9-77777777-55555555-00000000-55555555-00000000--| x2
A|-9-9-9-9-9-9-9-9-77777777-55555555-00000000-55555555-00000000--|
D|-9-9-9-9-9-9-9-9-77777777-55555555-00000000-55555555-00000000--|

Guitar 3     Guitar 4                           Guitar 3    the

e|------|    e|--------------------|   e|----------------------|
B|------|    B|--------------------|   B|----------------------|
G|--7\--|    G|--7777777777777777--|   G|--111111/14141414\7\--|
D|--5\--|    D|--xxxxxxxxxxxxxxxx--|   D|---x-x-x--x-x-x-x-x---|
A|--5\--|    A|--5555555555555555--|   A|---9-9-9/12121212\5\--|
D|--5\--|    D|--------------------|   D|----------------------|

 "Diehards"


Guitars 3 & 4

e|------------------------------------------------------------------------|
B|------------------------------------------------------------------------|
G|-----------111111111111111-77777777-99999999-77777777-1111111111111111--|
D|--00000000-9-9-9-9-9-9-9-9-44444444-77777777-55555555--9-9-9-9-9-9-9-9--|
A|--00000000-9-9-9-9-9-9-9-9-55555555-77777777-55555555--9-9-9-9-9-9-9-9--|
D|--00000000-9-9-9-9-9-9-9-9-44444444-77777777-55555555--9-9-9-9-9-9-9-9--|

"long live the car crash hearts"

e|-------------------|
B|-------------------|
G|----9-99--9-99--9--|  "Fix me in forty-five..."
D|----7-77--7-77--7--|
A|--777-77777-77777--|
D|--777-77777-77777--|
PM--**    **    **

Guitar 1 (clean)

e|------0---------|
B|---10----10-10--|
G|--7--7--7--7----|  "long live the car crash hearts"
D|----------------|
A|----------------|
D|----------------|


Guitar 3 & 4

e|-------|
B|-------|
G|-------|       "Long live the car crash hearts"
D|--0----| x2
A|--0----|
D|--0----|
                    "long live the car crash hearts, cry on the couch all poets come to 
fix me in forty five...

Guitar 1 (clean)
e|------0---------|   e|------0---------|     e|------0-------|
B|---10----10-10--|   B|---10----10-10--|     B|---10---10-10-|
G|--7--7-----7----|x2 G|--6--6-----6----|     G|--0--0----0---|
D|----------------|   D|----------------| x2  D|--------------|x2
A|----------------|   A|----------------|     A|--------------|
D|----------------|   D|----------------|     D|--------------|

e|------0--------|
B|---10---10-10--|
G|---------------|
D|--7--7----7----|x2
A|---------------|
D|---------------|

 Guitar 3  Guitar 4

e|------| e|--------|
B|------| B|--------|
G|------| G|--------|
D|--5---| D|--9-----|
A|------| A|--------|
D|------| D|--------|
Harm*---------------|

Guitar 3 & 4

e|--------------------------|
B|--------------------------|
G|--------------------------|
D|--------------------------|
A|--0000-0-0-0-0-0-0-00000--|
D|--0000-0-0-0-0-0-0-00000--|
PM--------------------------|

Guitar 3   Guitar 4

e|------|  e|-------------|
B|------|  B|-------------|
G|------|  G|-------------|
D|--5---|  D|--9~~~~~~~x--|
A|------|  A|-------------|
D|------|  D|-------------|

Harm*


Here it is. if you have guitar pro you should look at my thriller version its way easier to understand
Suggest correction
Creating personal tab
Creating personal tab
You can edit any tab online and save it as your Personal.

You can edit, replace or remove any tab part or add personal notes – all changes will be seen only by you.

Personal tabs can be accessed anytime from any device, even offline.
Learn more »
comments
print report bad tab
7 comments total. Showing first comments.
+1 reply
jjrawson 20 Jul 22, 2007 09:09 AM

it's "but by fall" as in autumn

0 reply
pnkr0cker 2,010 Jul 22, 2007 06:53 PM

okay text error but is my tab good or bad?

0 reply
kerjacklebass&! 52 Mar 30, 2008 05:16 PM

your tabs good...just as good as the others even if as many ppl dont rate it

guest
You may want to rate the tab now too:
select rating
Wanna post a correction for this tab? Suggest correction