Oops, an error
Loading. Please wait.

Uma Thurman solo tab

version 5
version 5

Solo

  • The other tabs are missing some notes.
  • I compressed it on to two strings.
  • The fancy riff from Patrick's acoustic performance (Drop D Tuning).

Whole song

Interactive

445 views 6 this week
no commentswrite comment
1 2 3 4 5
x 4
add to favorites
×
Save as Personal and add changes to this tab that will be seen only by you. Learn more ›
×
You can save this tab as Personal to edit and correct it or add notes. All changes will be seen only by you. Learn more »
launch autoscroll
font size
0
reset
how to read this tab
guitar tuner
edit
Autoscroll
slow
fast
+/-
esc
set tempo
stop
Author
Difficulty
About this tab version
I compressed it on to two strings. Was this info helpful? Yes No
e|-0--3--0--6--7--12--8--7--5---7--5--3---5--3--2--0-----0-|
B|----------------------------------------------------3----|
G|---------------------------------------------------------|
D|---------------------------------------------------------|
A|---------------------------------------------------------|
E|---------------------------------------------------------|

e|-0--3--0--6--7--12--8--7--5---3--5--7-----------------0-|
B|---------------------------------------0--0--0--2--4----|
G|--------------------------------------------------------|
D|--------------------------------------------------------|
A|--------------------------------------------------------|
E|--------------------------------------------------------|

            
            
Suggest correction
Creating personal tab
Creating personal tab
You can edit any tab online and save it as your Personal.

You can edit, replace or remove any tab part or add personal notes – all changes will be seen only by you.

Personal tabs can be accessed anytime from any device, even offline.
Learn more »
comments
print report bad tab
guest
You may want to rate the tab now too:
select rating
Wanna post a correction for this tab? Suggest correction