Oops, an error
Loading. Please wait.

West Coast Smoker Bass Tab

version 1
version 1

Whole song

Interactive

6,275 views 30 this week
1 commentread comment
1 2 3 4 5
accurate
x 9
add to favorites
launch autoscroll
font size
0
reset
guitar tuner
Tab Pro tools
  • play this tab
  • loop segment
  • change instrument
  • show fretboard
  • metronome
Autoscroll
slow
fast
+/-
esc
set tempo
stop
Contributor
-------------------------------------------------------------------------------
			     west coast smoker - fall out boy
-------------------------------------------------------------------------------

Tabbed By: Valerie Louie
e-mail: queefist@yahoo.com
Tuning: standard

Intro
G|---------------------------------|
D|---------------------------------|
A|---------------------------------|
E|0-0-0-0-0-0-0-0--0-0-0-0-0-0-3-2-|

Verse "wishes"
G|------------------------------------| 
D|------------------------------------|  
A|---------------------------0-0-3-2--|  
E|0-0-0-0-0-0-3-2--0-0-0-3-3----------|  

"the bulls are sedated.."
G|-----------------|
D|-----------------|
A|-0-0-0-0-0-0-3-2-|
E|-----------------| x2

"Don't feel bad..."
G|------------------------------------| 
D|------------------------------------|  
A|---------------------------0-0-3-2--|  
E|0-0-0-0-0-0-3-2--0-0-0-3-3----------|  

pre-chorus "The Pa system keeps my heart.."
G|---------------------------------|
D|-----------------------------2222|
A|-0-0-0-0-0-0-3-2-0-0-0-0-0-0-----|
E|---------------------------------| 

Chorus "Oh hell yes! (I'm a nervous wreck.)"
G|---------------------|
D|---------------------|
A|------5555-4444-3333-|
E|-0000----------------| x4

intro x1

Verse "Come on in the water's warm.."
G|------------------------------------| 
D|------------------------------------|  
A|---------------------------0-0-3-2--|  
E|0-0-0-0-0-0-3-2--0-0-0-3-3----------|  

"your eyes are blocking my starlight.."
G|-----------------|
D|-----------------|
A|-0-0-0-0-0-0-3-2-|
E|-----------------| x2

G|------------------------------------| 
D|------------------------------------|  
A|---------------------------0-0-3-2--|  
E|0-0-0-0-0-0-3-2--0-0-0-3-3----------|  

pre-chorus x1

Chorus "I'm a nervous wreck.)"
G|---------------| |---------------------|
D|---------------| |---------------------|
A|5555-4444-3333-| |-----5555-4444-3333--|
E|---------------| |0000-----------------| x4

bridge
G|-----|-----------------------------------------|
D|-----|-----------------------------------------|
A|-----|-5-5--443------5555-4444-3333------5555--|
E|-00--|----------0000----------------0000-------| 


Chorus "Oh hell yes! (I'm a nervous wreck.)"
G|---------------------|
D|---------------------|
A|------5555-4444-3333-|
E|-0000----------------| 

Keep repeating chorus until the end of the song
comments
print report bad tab
1 comment total.
0 reply
glmclaughlin13 wrote on July 1 2010, 02:59 am

This is like perfect..
Amazing job, thanks :D

I want to post or [tab]
guest
You may want to rate the tab now too:
select rating
Please do not post tabs as comments. Select "correction" instead!