Oops, an error
Loading. Please wait.
We have Chord Pro version of What A Catch Donnie.
It's the closest thing you can get to the original song and it has interactive parts. Check out the tab »
×
18,507 views 9 this week
3 commentsread comments
1 2 3 4 5
x 6
add to favorites
×
Save as Personal and add changes to this tab that will be seen only by you. Learn more ›
×
You can save this tab as Personal to edit and correct it or add notes. All changes will be seen only by you. Learn more »
launch autoscroll
font size
0
reset
how to read this tab
guitar tuner
edit
Autoscroll
slow
fast
+/-
esc
set tempo
stop
Author
What a Catch Donnie.

Standard Tuning.

Legend:

T=Play E string with thumb
x=Dead note
/or\=Slide
g=Grace note (quick slide or hammer-on)

------------------------------------------------------------------
Intro

Piano tabbed for guitar
    
   "I've got troubled thoughts..."                               
e|-----------------------0~--0----------------------------------|
B|--2~-2---0~-0---2~-2---0~--0---7~--7---5~-5---2~-2---0-0-0-0--|
G|--2~-2---1~-1---2~-2---1~--1---7~--7---6~-6---2~-2---1-1-1-1--|
D|--2~-2---2~-2---2~-2---2~--2---7~--7---7~-7---2~-2---2-2-2-2--|
A|--0~---0-0~---0-x------2~--2---5~----5-4~---4-x------0-0-0-0--|
E|----------------2~---2-0~----0----------------2~---2----------|
                  T    T                        T    T
-----------------------------------------------------------------
Interlude

Guitar 1 Distortion

e|-----------------|
B|--5/10-10-10-10--|
G|--x--x--x--x--x--| Play as much as needed.
D|--2/-7--7--7--7--|
A|-----------------|
E|-----------------|
------------------------------------------------------------------

Verse
 
"You'll never catch us..."
e|--------------------------------------------------|
B|--14~-\12~-\10~-1010-12-14------------------------|
G|---x----x----x---x-x--x--x-9-9g11~--9~--11--13~\--|
D|--11~-\-9~-\-7~--7-7--9-11-x-x--x---x----x---x----|
A|---------------------------7-7g-9~--7~---9--11~\--|
E|--------------------------------------------------|

-------------------------------------------------------------------

Pre-Chorus

"...back. Yeah..."         "mrs. Flack..."
e|------------------------|-------------------------|
B|------------------------|-------------------------|
G|--------------------9~--|--9g11~--9~~~\-----------|
D|-------------9-9g11-----|-------------------------|
A|--9-11-11g13------------|-------------------------|
E|------------------------|----------------5-4-3-2--|

-------------------------------------------------------------------

Chorus

Guitar 1
   "I've Got Troubled..."
e|------------------------------------|
B|----------------------1-------------|
G|--------7--5-------3--2-----5-------|
D|--3--2--7--5----5--3--3--5--5---3---|   x2
A|--3--3--5--3--35-0-1--0--5--3-35-0--|
E|--1--0--5--3-------------3--3-------|


Guitar 2 Distortion
  "What a Catch"
e|--------------|
B|--------------|
G|--------------|
D|----33-3577~--|
A|--35----------|
E|--------------|

Guitar 3 Distortion

e|--------------|
B|---------03~--|
G|-------02-----|
D|--------------|
A|--------------|
E|--------------|

--------------------------------------------------------------

Interlude

Guitar 1
"You.....whoa..."
e|------|
B|------|
G|--2~--|
D|--2~--|
A|--0~--|
E|------|

---------------------------------------------------------------

Verse

Guitar 1

"They say the captain..."
e|-------------------------------------|
B|--14~--14\10\7~-------------9h10h9~--|
G|---x-------------9~--9g11~-----------|
D|--12~--------------------------------|
A|-------------------------------------|
E|-------------------------------------|

---------------------------------------------------------------

Pre-Chorus

"...back. Yeah..."         "mrs. Flack..."
e|------------------------|-------------------------|
B|------------------------|-------------------------|
G|--------------------9~--|--9g11~--9~~~\-----------|
D|-------------9-9g11-----|-------------------------|
A|--9-11-11g13------------|-------------------------|
E|------------------------|----------------5-4-3-2--|


Repeat Chorus.

-------------------------------------------------------

Bridge

Gtr 1
     "Na,na..."  "What a catch, what a catch..."
e|----------------------|-----------------------|
B|----------------------|-----------------------|
G|----------------------|-----7-----------------|
D|--7--5-----3--2--3-4--|--7--7--2--4--5--4--3--|
A|--7--5--5--3--3--3-4--|--4--5--3--4--5--4--3--|
E|--5--3--2--1--0--1-2--|--------0--2--3--2--1--|

-------------------------------------------------------

Interlude
  "I will never end up like him..."
e|------|
B|------|
G|--2~--|
D|--2~--|
A|--0~--|
E|------|

Chorus until the end and play this final chord

---------------------------------------------------
Outro
"I've got troubled thoughts..."
e|-----|
B|-----|
G|-----|
D|--3--|
A|--3--|
E|--1--|


Here you are. have fun!

            
            
Suggest correction
Creating personal tab
Creating personal tab
You can edit any tab online and save it as your Personal.

You can edit, replace or remove any tab part or add personal notes – all changes will be seen only by you.

Personal tabs can be accessed anytime from any device, even offline.
Learn more »
comments
print report bad tab
3 comments total.
+1 reply
registereduser1 10 Aug 04, 2009 06:23 PM

Finally a good one. Last two chords sound wrong though on the intro piano part.

+1 reply
ogeiD 10 Sep 05, 2009 06:35 PM

***** but lyric correction: "mrs. Flack..." "ms. Flack..." :D

0 reply
TripleBBB 10 Sep 19, 2013 07:13 PM

The last chord should be EM, otherwise good!

guest
You may want to rate the tab now too:
select rating
Wanna post a correction for this tab? Suggest correction