Oops, an error
Loading. Please wait.

Where Did The Party Go Bass Tab

28,502 views 177 this week
2 commentsread comments
1 2 3 4 5
excellent!
x 26
add to favorites
launch autoscroll
font size
0
reset
guitar tuner
Tab Pro tools
  • play this tab
  • loop segment
  • change instrument
  • show fretboard
  • metronome
Autoscroll
slow
fast
+/-
esc
set tempo
stop
Contributor
Difficulty
novice
Intro/Main Line
G|-----------------------------------------------------|
D|-------------55-----------------55-------------------|
A|--55-88-5-33-----1/555-88-5-33-----------------------| 
E|-----------------------------------------------------|

Verse
G|-----------------------------------------------------|
D|-----------------------------------------------------|
A|----------33-553553-88-------------------------------|
E|-66566566--------------330330-555-66566566-----------|

Repeat main line accordingly 
comments
print report bad tab
2 comments total.
+1 reply
saraha0210 wrote on May 27 2013, 03:20 pm

Intro/Main Line
G|------------------------------|
D|----------3-3-3-----5---------|
A|--1/5-55--------333-----------|
E|------------------------------|

0 reply
Pandkakes wrote on June 11 2013, 07:59 pm

Thanks saraha0210, you are right :) I just put this tab up the day the album was released and didn't really listen as closely as I should. So I listened to the song a bunch more times and looked through youtube and found Chris Khalife's video. Here is the link! He has a PERFECT tab for this song right below a video of him playing it and also more really great tabs on his website :)
https://sites.google.com/site/chriskhalifebasstabs/home/fall-out-boy/where-did-the-party-go-bass-tab

I want to post or [tab]
guest
You may want to rate the tab now too:
select rating
Please do not post tabs as comments. Select "correction" instead!