Oops, an error
Loading. Please wait.

Where Did The Party Go Bass

version 1
version 1

Whole song

  • The other version uses notes that don't go with th... Show more
35,634 views 99 this week
3 commentsread comments
1 2 3 4 5
x 46
add to favorites
launch autoscroll
font size
0
reset
guitar tuner
×
Best way to learn
"Where Did The Party Go"
Autoscroll
slow
fast
+/-
esc
set tempo
stop
Author
Difficulty
Tuning
novice
E A D G
[Intro/Main Line]

G|-----------------------------------------------------|
D|-------------55-----------------55-------------------|
A|--55-88-8-33-----1/555-88-8-33-----------------------| 
E|-----------------------------------------------------|


[Verse]

G|-----------------------------------------------------|
D|-----------------------------------------------------|
A|----------33-553553-88-------------------------------|
E|-66566566--------------331331-555-66566566-----------|

Repeat main line accordingly



************************************

| /  Slide up

************************************
Suggest correction
comments
print report bad tab
3 comments total.
+1 reply
saraha0210 10 May 27, 2013 11:20 AM

Intro/Main Line
G|------------------------------|
D|----------3-3-3-----5---------|
A|--1/5-55--------333-----------|
E|------------------------------|

+1 reply
Pandkakes 160 Jun 11, 2013 03:59 PM

Thanks saraha0210, you are right :) I just put this tab up the day the album was released and didn't really listen as closely as I should. So I listened to the song a bunch more times and looked through youtube and found Chris Khalife's video. Here is the link! He has a PERFECT tab for this song right below a video of him playing it and also more really great tabs on his website :)
https://sites.google.com/site/chriskhalifebasstabs/home/fall-out-boy/where-did-the-party-go-bass-tab

0 reply
guitarbeat9 10 Dec 25, 2016 11:18 PM

I LOVE THIS TAB, I do not have a bass but sounds killer on my strat

guest
You may want to rate the tab now too:
select rating
Wanna post a correction for this tab? Suggest correction