Oops, an error
Loading. Please wait.

Where Did The Party Go bass

version 2
version 2

Whole song

  • The other version uses notes that don't go with th... Show more
1,657 views 27 this week
no commentswrite comment
1 2 3 4 5
x 5
add to favorites
×
Save as Personal and add changes to this tab that will be seen only by you. Learn more ›
×
You can save this tab as Personal to edit and correct it or add notes. All changes will be seen only by you. Learn more »
launch autoscroll
font size
0
reset
guitar tuner
edit
Autoscroll
slow
fast
+/-
esc
set tempo
stop
About this tab version
The other version uses notes that don't go with the song and it doesn't include the right timings. Was this info helpful? Yes No
-------------------------------------------------------------------------------
                          Where Did The Party Go - Fall Out Boy
-------------------------------------------------------------------------------
Tabbed by: CJC
E-mail: cindi.susi@yahoo.com

Tuning: Standard

Intro

G|--------------------------------------------------------------------|
D|-------------3--------3-------3----------------5--------------------|
A|-5-----5---------------------------3-----3--------------------------| x4
E|------------------------------------------------------------6---6---|

First Verse

G|--------------------------------------------------------------------|
D|-------------3--------3-------3----------------5--------------------|
A|-5-----5---------------------------3-----3--------------------------| x3
E|------------------------------------------------------------6---6---|

G|--------------------------------------------------------------------|
D|-------------3--------3-------3----------------5--------------------|
A|-5-----5---------------------------3-----3--------------------------|
E|--------------------------------------------------------------------|

Pre-Chorus 

G|--------------------------------------------------------------------|
D|--------------------------------------------------------------------|
A|-1-----1-----1----1-----1-----1----1-----1-----1----1---3---3---3---|
E|--------------------------------------------------------------------|

G|--------------------------------------------------------------------|
D|--------------------------------------------------------3---3---3---|
A|-5-----5-----5----5-----5-----5----5-----5-----5----5---------------|
E|--------------------------------------------------------------------|

G|--------------------------------------------------------------------|
D|--------------------------------------------------------------------|
A|--------------------------------------------------------0---0---0---|
E|-3-----3-----1----3-----3-----1----3-----3-----1----3---------------|

G|--------------------------------------------------------------------|
D|--------------------------------------------------------------------|
A|-1-----1-----0----1-----1-----0----1-----1-----0----1---1---1---0---|
E|--------------------------------------------------------------------|

G|--------------------------------------------------------------------|
D|--------------------------------------------------------------------|
A|-1-----1-----0----1-----1-----0----1-----1-----0----1---3---3---3---|
E|--------------------------------------------------------------------|

G|--------------------------------------------------------------------|
D|--------------------------------------------------------3---3---3---|
A|-5-----5-----5----5-----5-----5----5-----5-----5----5---------------|
E|--------------------------------------------------------------------|

G|--------------------------------------------------------------------|
D|--------------------------------------------------------------------|
A|--------------------------------------------------------0---0---0---|
E|-3-----3-----1----3-----3-----1----3-----3-----1----3---------------|

G|--------------------------------------------------------------------|
D|--------------------------------------------------------------------|
A|-1-----1-----0----1-----1-----0----1-----1-----0-----------/12\-----|
E|--------------------------------------------------------------------|

Chorus 

G|--------------------------------------------------------------------|
D|-------------3--------3-------3-------------------------------------|
A|-5-----5---------------------------3-----3------------------1/------| x2
E|-----------------------------------------------3--------------------|

G|--------------------------------------------------------------------|
D|-------------3--------3-------3-------------------------------------|
A|-5-----5---------------------------3-----3------------------1/------| 
E|-----------------------------------------------3--------3-----------|

G|--------------------------------------------------------------------|
D|-------------3--------3-------3-------------------------------------|
A|-5-----5---------------------------3-----3------------------1/------|
E|-----------------------------------------------3--------------------|

G|--------------------------------------------------------------------|
D|-------------3--------3-------3-------------------------------------|
A|-5---3-5---------------------------3---0-3------------------1/------| x2
E|-----------------------------------------------3--------3-----------|

Post-Chorus

G|--------------------------------------------------------------------|
D|-------------3--------3-------3----------------5--------------------|
A|-5-----5---------------------------3-----3--------------------------|
E|------------------------------------------------------------6---6---|

Second Verse

G|--------------------------------------------------------------------|
D|-------------3--------3-------3----------------5--------------------|
A|-5-----5---------------------------3-----3--------------------------| x3
E|------------------------------------------------------------6---6---|

G|--------------------------------------------------------------------|
D|-------------3--------3-------3----------------5--------------------|
A|-5-----5---------------------------3-----3--------------------------|
E|--------------------------------------------------------------------|
   
Pre-Chorus 

G|--------------------------------------------------------------------|
D|--------------------------------------------------------------------|
A|-1-----1-----0----1-----1-----0----1-----1-----0----1---3---3---3---|
E|--------------------------------------------------------------------|

G|--------------------------------------------------------------------|
D|--------------------------------------------------------3---3---3---|
A|-5-----5-----5----5-----5-----5----5-----5-----5----5---------------|
E|--------------------------------------------------------------------|

G|--------------------------------------------------------------------|
D|--------------------------------------------------------------------|
A|--------------------------------------------------------0---0---0---|
E|-3-----3-----1----3-----3-----1----3-----3-----1----3---------------|

G|--------------------------------------------------------------------|
D|--------------------------------------------------------------------|
A|-1-----1-----0----1-----1-----0----1-----1-----0----1---1---3---3---|
E|--------------------------------------------------------------------|

G|--------------------------------------------------------------------|
D|--------------------------------------------------------------------|
A|-1-----1-----0----1-----1-----0----1-----1-----0----1---3---3---3---|
E|--------------------------------------------------------------------|

G|--------------------------------------------------------------------|
D|--------------------------------------------------------3---3---3---|
A|-5-----5-----5----5-----5-----5----5-----5-----5----5---------------|
E|--------------------------------------------------------------------|

G|--------------------------------------------------------------------|
D|--------------------------------------------------------------------|
A|--------------------------------------------------------0---0---0---|
E|-3-----3-----1----3-----3-----1----3-----3-----1----3---------------|

G|-------------------------------------------------------/15----------|
D|------------------------------------------------------------15\-----|
A|-1-----1-----0----1-----1-----0----1-----1-----0--------------------|
E|--------------------------------------------------------------------|

Chorus 

G|--------------------------------------------------------------------|
D|-------------3--------3-------3-------------------------------------|
A|-5-----5---------------------------3-----3------------------1/------| x2
E|-----------------------------------------------3--------------------|

G|--------------------------------------------------------------------|
D|-------------3--------3-------3-------------------------------------|
A|-5-----5---------------------------3-----3------------------1/------| 
E|-----------------------------------------------3--------3-----------|

G|--------------------------------------------------------------------|
D|-------------3--------3-------3-------------------------------------|
A|-5-----5---------------------------3-----3------------------1/------|
E|-----------------------------------------------3--------------------|

G|--------------------------------------------------------------------|
D|-------------3--------3-------3-------------------------------------|
A|-5-----5---------------------------3-----3------------------1/------| x2
E|-----------------------------------------------3--------------------|

G|--------------------------------------------------------------------|
D|-------------3--------3-------3-------------------------------------|
A|-5-----5---------------------------3-----3------------------1/------| 
E|-----------------------------------------------3--------3-----------|

G|--------------------------------------------------------------------|
D|-------------3--------3-------3-------------------------------------|
A|-5-----5---------------------------3-----3------------------1/------|
E|-----------------------------------------------3--------------------|

Bridge (come in at 3:07)

G|--------------------------------------------------------------------|
D|--------------------------------------------------------------------|
A|----------------------------------------------------------/12\------|
E|--------------------------------------------------------------------|

Chorus/Outro

G|--------------------------------------------------------------------|
D|-------------3--------3-------3-------------------------------------|
A|-5-----5---------------------------3-----3------------------1/------| x2
E|-----------------------------------------------3--------------------|

G|--------------------------------------------------------------------|
D|-------------3--------3-------3-------------------------------------|
A|-5-----5---------------------------3-----3------------------1/------| 
E|-----------------------------------------------3--------3-----------|

G|--------------------------------------------------------------------|
D|-------------3--------3-------3-------------------------------------|
A|-5-----5---------------------------3-----3------------------1/------|
E|-----------------------------------------------3--------------------|

G|--------------------------------------------------------------------|
D|-------------3--------3-------3-------------------------------------|
A|-5---3-5---------------------------3---0-3------------------1/------| x4
E|-----------------------------------------------3--------3-----------|

| /  slide up
| \  slide down
| h  hammer-on
| p  pull-off
| ~  vibrato
| +  harmonic
| x  Mute note
===============================================================================

            
            
Suggest correction
Creating personal tab
Creating personal tab
You can edit any tab online and save it as your Personal.

You can edit, replace or remove any tab part or add personal notes – all changes will be seen only by you.

Personal tabs can be accessed anytime from any device, even offline.
Learn more »
comments
print report bad tab
guest
You may want to rate the tab now too:
select rating
Wanna post a correction for this tab? Suggest correction