Oops, an error
Loading. Please wait.

Where Is Your Boy Tonight Tab

version 1
version 1

Whole song

44,052 views 48 this week
20 commentsread comments
1 2 3 4 5
excellent!
x 22
add to favorites
launch autoscroll
font size
0
reset
how to read this tab
guitar tuner
Tab Pro tools
  • play this tab
  • loop segment
  • change instrument
  • show fretboard
  • metronome
×
Best way to learn
"Where Is Your Boy Tonight"
Autoscroll
slow
fast
+/-
esc
set tempo
stop
Contributor
Tabbed by: GuitarGuy876
Email: GuitarGuy876@hotmail.com

Drop-D Tuning(D-A-D-G-B-e)

Vocal Intro

Guitar 1
e|---------------------------------------------------------------------------|
B|---------------------------------------------------------------------------|
G|-6/7-7-7-6/7-7-7-6/7-7-7-6/7-7-7-------------------------------------------|
D|-x-x-x-x-x-x-x-x-x-x-x-x-x-x-x-x----repeat til lyrics start----------------|
A|-4/5-5-5-4/5-5-5-4/5-5-5-4/5-5-5-------------------------------------------|
D|---------------------------------------------------------------------------|

Guitar 2(Come in after 2 times of above Guitar 1 riff)
e|---------------------------------------------------------------------------|
B|---------------------------------------------------------------------------|
G|-7-7-7-7-7-7-7-7-7-7-7-7-7-7-7-7--4-4-4-4-4-4-4-4-4--2-2-2-2-2-2-2-2-------|
D|-7-7-7-7-7-7-7-7-7-7-7-7-7-7-7-7--4-4-4-4-4-4-4-4-4--2-2-2-2-2-2-2-2-------|
A|-5-5-5-5-5-5-5-5-5-5-5-5-5-5-5-5--2-2-2-2-2-2-2-2-2--0-0-0-0-0-0-0-0-------|
D|---------------------------------------------------------------------------|


"When I wake up..."
Guitar 1
e|---------------------------------------------------------------------------|
B|---------------------------------------------------------------------------|
G|-7-7--7-7-7---7-7--7-7-7---7-7--7-7-7---7-7--7-7-7-------------------------|
D|-7-7--7-7-7---7-7--7-7-7---7-7--7-7-7---7-7--7-7-7-------------------------|
A|-5-5--5-5-5---5-5--5-5-5---5-5--5-5-5---5-5--5-5-5-------------------------|
D|---------------------------------------------------------------------------|

Guitar 2
e|---------------------------------------------------------------------------|
B|---------------------------------------------------------------------------|
G|-7-7-----------------------------------------------------------------------|
D|-7-7--------4-5-5--------4-2-2--------4-5-5--4-5-5--7----------------------|
A|-5-5--------4-5-5--------4-2-2--------4-5-5--4-5-5--7----------------------|
D|------------4-5-5--------4-2-2--------4-5-5--4-5-5--7----------------------|

"You need him..."
Both Guitars
e|---------------------------------------------------------------------------|
B|---------------------------------------------------------------------------|
G|-7-7-7-7--9-9-9-9----------------------------------------------------------|
D|-7-7-7-7--9-9-9-9--0-0-0-0--5-5-5-5---5-5--5-5--7-7--7-7---0-0--0-0--------|
A|-5-5-5-5--7-7-7-7--0-0-0-0--5-5-5-5---5-5--5-5--7-7--7-7---0-0--0-0--------|
D|-------------------0-0-0-0--5-5-5-5---5-5--5-5--7-7--7-7---0-0--0-0--------|

Guitar 1 plays first riff

"Where is your boy tonight..."
Both Guitars
e|---------------------------------------------------------------------------|
B|---------------------------------------------------------------------------|
G|-7-7-----------------------------------------------------------------------|
D|-7-7--5-5--0-0--4-4--5-5--7-7--0-0--4-4--5-5--7-7--0-0-0-0--2-2-2-2--4/5---|
A|-5-5--5-5--0-0--4-4--5-5--7-7--0-0--4-4--5-5--7-7--0-0-0-0--2-2-2-2--4/5---|
D|------5-5--0-0--4-4--5-5--7-7--0-0--4-4--5-5--7-7--0-0-0-0--2-2-2-2--4/5---|

Play intro riff

Guitar 1
e|---------------------------------------------------------------------------|
B|---------------------------------------------------------------------------|
G|---------------------------------------------------------------------------|
D|-0-0-0-9-9-0-9-0-0-9-9-0-9-00-0-0-9-9-0-9-0-0-9-9-0-9----------------------|
A|---------------------------------------------------------------------------|
D|---------------------------------------------------------------------------|

Guitar 2
e|---------------------------------------------------------------------------|
B|-7-3-5-3-7-3-5-3-7-3-5-3-7-3-5-3-------------------------------------------|
G|---------------------------------------------------------------------------|
D|---------------------------------------------------------------------------|
A|---------------------------------------------------------------------------|
D|---------------------------------------------------------------------------|

Bridge
Guitar 1(Guitar 2 continues to play above riff)
e|---------------------------------------------------------------------------|
B|---------------------------------------------------------------------------|
G|-4-4-4-4--2-2-2-2----------------------------------------------------------|
D|-4-4-4-4--2-2-2-2--0-0-0-0--5-5-5-5----------------------------------------|
A|-2-2-2-2--0-0-0-0--0-0-0-0--5-5-5-5----------------------------------------|
D|-------------------0-0-0-0--5-5-5-5----------------------------------------|

Guitar 1
"Where is your boy..."
e|---------------------------------------------------------------------------|
B|---------------------------------------------------------------------------|
G|-7-7----------------------------------7-7-7-7--9-9-9-9---------------------|
D|-7-7--5-5--0-0--4-4--5-5--7-7--Pause--7-7-7-7--9-9-9-9--0-0-0-0--5-5-5-5---|
A|-5-5--5-5--0-0--4-4--5-5--7-7---------5-5-5-5--7-7-7-7--0-0-0-0--5-5-5-5---|
D|------5-5--0-0--4-4--5-5--7-7---------------------------0-0-0-0--5-5-5-5---|

e|---------------------------------------------------------------------------|
B|---------------------------------------------------------------------------|
G|---------------------------------------------------------------------------|
D|-0-0-0-0-0-0-0-0--5-5-5-5-5-5-5-5------------------------------------------|
A|-0-0-0-0-0-0-0-0--5-5-5-5-5-5-5-5------------------------------------------|
D|-0-0-0-0-0-0-0-0--5-5-5-5-5-5-5-5------------------------------------------|

Both Guitars
"Where is your boy..."
e|---------------------------------------------------------------------------|
B|---------------------------------------------------------------------------|
G|-7-7x----------------------------------------------------------------------|
D|-7-7x--5-5x--0-0x--4-4x--5-5x--7-7x--0-0x--4-4x--5-5x--7-7x----------------|
A|-5-5x--5-5x--0-0x--4-4x--5-5x--7-7x--0-0x--4-4x--5-5x--7-7x----------------|
D|-------5-5x--0-0x--4-4x--5-5x--7-7x--0-0x--4-4x--5-5x--7-7x----------------|

e|--------------------------|
B|--------------------------|
G|------------------------7-|
D|-0-0-0-0--2-2-2-2--4/5--7-|
A|-0-0-0-0--2-2-2-2--4/5--5-|
D|-0-0-0-0--2-2-2-2--4/5----|

Fin
comments
print report bad tab
20 comments total. Showing first comments.
0 reply
kevGhommiefry wrote on November 27 2004, 12:00 am

the song is called grand theft autumn buddy

0 reply
Milez180 wrote on January 26 2006, 05:31 pm

overall its doesnt matter, we know what song it is. plus its a good tab..

0 reply
GuitarGuy876 wrote on January 26 2006, 07:18 pm

Thanks for the support, I named it "Where Is Your Boy Tonight" because many people dont know it is Grand Theft Autumn and have a hard time finding the tab

I want to post or [tab]
guest
You may want to rate the tab now too:
select rating
Please do not post tabs as comments. Select "correction" instead!